Guitar Tabs
song title    band name

Join Us Today!

Don't strum alone...
be a part of the largest online Christian music community. Browse thousands of guitar tabs and chat w/ musicians like yourself.


It's Free!

This tab has been rated a 4.80 out of 5 for accuracy. (5 votes)Sorry, but you must be logged in to rate this tab.
Click here to log-in, or you can click here to register.
(Registration is free)

All songs owned by corresponding publishing company. If you make copies of any song on this website, be sure to report your usage to CCLI.
Submitted by: xDisconnektiex

Blindside
Fell In Love With The Game
The Great Deprssion
2005

I'm  putting this tab up because the other ones looked a little bit
messy and it was tough to figure out. but it was a good tab.
but this one does have a few differences and its pretty easy to understand.

 /= Slide Up

 Intro

e|------------------------|
b|------------------------|
g|--------------8-8--9-9--| 2x Easy enough right?
d|-10-10--9-9---x-x--x-x--|
a|-10-10--9-9---6-6--7-7--|
E|--8--8--7-7-------------|

Verse is easy. The time signature is a little akward
but its pretty easy once you listen closely and play along.

e|---------------|-----------------------|
b|-8-8-----------|-----------------------|
g|-9-9--8-8--9-9-|-------------8-8--9-9--|
d|-9-9--9-9--8-9-|-10-10--9-9--x-x--x-x--|
a|-7-7--7-7--7-7-|-10-10--9-9--6-6--7-7--|
E|---------------|--8-8---7-7------------|
Do The first section before you go to the chorus.

Now for the Chorus. It's pretty easy but the timing on 
the last part is very akward. listen to it ALOT and you 
will get it.

e|------------------------------------|--------------|
b|----------8-8-----------------------|--------------|
g|----------9-9--12-12---9--9--9--8-8-|-7/9--9-9-9-9-| 2x
d|-5-5-5/7--9-9--12-12--10-10--9--9-9-|-x/x--x-x-x-x-|
a|-5-5-5/7--7-7--10-10--10-10--9--9-9-|-5/7--0-7-0-7-|
E|-3-3-3/5---------------8--8--7--7-7-|------0---0---|

2nd verse same as first one. 
Then the chorus! you know, its all the same.

And now the bridge!! W00ta! its realy easy so you should 
have no problem with it! but again, the last part has the
tricky timing like the last part in the chorus. LISTEN TO
THE CD!!!!!

e|--------------|-----------------|
b|--------------|-----------------|
g|-5-5-----4----|-16-16-16-16-16--|
d|-5-5--2--4-3x-|--x--x--x--x--x--|  2x
a|-3-3--2--2----|-14--0--4--0--4--|
E|-3-3--0--2----|-----0-----0-----|
2nd part of the bridge he is using a funky effect so it wont sound
the same unless you are using the same affect or whatever it is.
but he's using octaves and it sounds fine without the effect. 
e|-----------|
b|-----------|
g|-12--8/9---|then it does the intro. then this again
d|--x--x/x---|then the intro again. then its just drums.
a|-10--6/7---|
E|-----------|

and then back to the chorus. and after you are done with the chorus
you go bacl to the intro i think maybe 4x im not sure i could be totally
wrong but oh well. it's the same thing though. so, there it is! Enjoy!!
Questions E-mail or IM Fireangel6149@aol.com

Comments about this tab

xDisconnektiex - 2006-05-27

please rate!! thanks much people!!
<333


xDisconnektiex - 2006-05-27

sorry.. i messed up in two areas.. the last part of the chorus.
e|------------------------------------|--------------|
b|----------8-8-----------------------|--------------|
g|----------9-9--12-12---9--9--9--8-8-|-7/9--9-9-9-9-| 2x
d|-5-5-5/7--9-9--12-12--10-10--9--9-9-|-x/x--x-x-x-x-|
a|-5-5-5/7--7-7--10-10--10-10--9--9-9-|-5/7--0-7-0-7-|
E|-3-3-3/5---------------8--8--7--7-7-|------0---0---|

and the last part of the second part of the brigde
e|--------------|-----------------|
b|--------------|-----------------|
g|-5-5-----4----|-16-16-16-16-16--|
d|-5-5--2--4-3x-|--x--x--x--x--x--| 2x
a|-3-3--2--2----|-14--0--4--0--4--|
E|-3-3--0--2----|-----0-----0-----|

its pretty much the same just play both strings open!


sorefingers - 2006-05-27

It's fixed now.


xDisconnektiex - 2006-05-28

oh wow. thanks! lol


akaukal - 2006-05-28

WAY 5!!!!!!PERFECT!!!Keep tabbing Blindside!


xDisconnektiex - 2006-05-28

uhhh thanks dude.. but i guess i should work on my kids in the way tabs huh?? lol


akaukal - 2006-05-29

haha =P. maybe.


xDisconnektiex - 2006-05-30

lol ill try.


Dani_Boy - 2006-07-03

I almost totally agree with akaukal. I'm giving it a 5! :) You missed a few notes and a few strummings if I should be super-picky, but I don't care. It's great! I'll make a tab of this song myself to fill in those tiny things you missed, but I'll make sure to give you the credit for the tab. Great Job!!!!


akaukal - 2006-07-11

I don't think the strummings really matter. If anyone really cared about exact strummings and stuff, they would just use powertab. It's impossible to get it perfect without powertab.


xDisconnektiex - 2006-07-12

Yeah, I mean. if you're gonna get tas online, you need to be good enough to atleast figure out the strumming yourself. Cause it's not all that hard at all.


xDisconnektiex - 2006-07-17

oops... ***tab


Dani_Boy - 2006-07-19

No, I know it's not hard to figure out the strummings, but I always try to tab as exact as I can. This tab is AWESOME! I just found a few small details I'm gonna try to fix sometime. Again, GREAT JOB!!!


Add a comment/correction

Complimentary Christian Ringtones
Dadamobile and CGR have teamed up to bring your favorite Christian artists right to your phone. Sign up today and get 10 complementary ringtones!
Tab Country
Did you know CGR has a sister site w/ country guitar tabs? Well we do! Its called Tab Country. It has a great archive with a lot of country tabs.
Rockin Tabs
Are you looking for a site that has rock guitar tabs? Then Rockintabs.com is the place for you. It is a budding site with many rock guitar tabs. Submit your tab today.
Tab Gallery
Tab Gallery has a compilation of christian, rock, and country tabs all in one place. Come visit us.