Guitar Tabs
song title    band name

Join Us Today!

Don't strum alone...
be a part of the largest online Christian music community. Browse thousands of guitar tabs and chat w/ musicians like yourself.


It's Free!

This tab has been rated a 5.00 out of 5 for accuracy. (1 vote)Sorry, but you must be logged in to rate this tab.
Click here to log-in, or you can click here to register.
(Registration is free)

All songs owned by corresponding publishing company. If you make copies of any song on this website, be sure to report your usage to CCLI.
Submitted by: 3rd_day89

The version of this song on the site is a little weird. I found an easier way
to play and it is played through the majority of the song.

E|-------------------------------------------|
B|---6----4----6----4----6----4--6-----------|
G|---6----4----6----4----6----4--6-----------|
D|-------------------------------------------|
A|-4-4--2-2--4-4--2-2--4-4--2-2--4-----------|
E|-------------------------------------------|

It's pretty easy once you get. All you're doing is sliding up and down the
fret board. Feel free to email me with any questions or comments at
merunfar@yahoo.com
God Bless,
Brad
<*)))><

Comments about this tab

RiNGEiSEN1986 - 2006-05-26

This sounds right, but I think it's Capo 1. This tab should be played NOT relative to the capo. Also, there is a little slide from 2 to 4 each time and the high e string is played open. So, playing Capo 1 (relative to the capo), it would look like this:

e|-----0--0------0--0------0--0-----------|
B|-----5--3------5--3------5--3-----------|
G|-----5--3------5--3------5--3-----------|
D|----------------------------------------|
A|-1/3-------1/3-------1/3------1/3-------|
E|----------------------------------------|


3rd_day89 - 2006-06-08

I noticed the slide but I thought it sounded fine without it. It still sounds about right so I think it works.


AdamW - 2007-01-25

yes he is right bout the slide...but does anyone have the chords to the chorus and prechorus...preferably with some words but anything will help
thanks
stay strong


alexoh999 - 2008-06-03

the way i play it is

standard tuning, no capo

e|-----------------------------------------------------------------|
B|-----------------------------------------------------------------|
G|----------10-------8--------------------10-------8---------------|
D|---------------------------(x3)----------------------------------|
A|-----------------------------------------------------------------|
E|----7s9--------7------7------------7s9--------7----7s9-----------|

and repeat, so on and so on
it's easier if you start out with

e|-----
B|-----
G|--8--
D|--x--
A|--x--
E|--7--

and keep you hand like that for the song.
little opinion, sounds better when you mute it. :D


Add a comment/correction

Complimentary Christian Ringtones
Dadamobile and CGR have teamed up to bring your favorite Christian artists right to your phone. Sign up today and get 10 complementary ringtones!
Tab Country
Did you know CGR has a sister site w/ country guitar tabs? Well we do! Its called Tab Country. It has a great archive with a lot of country tabs.
Rockin Tabs
Are you looking for a site that has rock guitar tabs? Then Rockintabs.com is the place for you. It is a budding site with many rock guitar tabs. Submit your tab today.
Tab Gallery
Tab Gallery has a compilation of christian, rock, and country tabs all in one place. Come visit us.