Guitar Tabs
song title    band name

Join Us Today!

Don't strum alone...
be a part of the largest online Christian music community. Browse thousands of guitar tabs and chat w/ musicians like yourself.


It's Free!

This tab has been rated a 4.33 out of 5 for accuracy. (3 votes)Sorry, but you must be logged in to rate this tab.
Click here to log-in, or you can click here to register.
(Registration is free)

All songs owned by corresponding publishing company. If you make copies of any song on this website, be sure to report your usage to CCLI.
Submitted by: tl_guitarnut

Band: Seventh Day Slumber
Song: Break Me
CD: Once Upon a Shattered Life
Copyright  Bec Recordings
Tuning: Drop D (DADGBE)

s: slide
h: hammer on

Intro:
E | ------------------------------------------------------|
B | ------------------------------------------------------|
G | ------------------------------------------------------|
D | -13-13-13s9-9---13-13-13-14-14-9-9--------------------|
A | ------------------------------------------------------|2x
D| -------------------------------------------------------|

Verse:
E | ----------------------------------------------------------|
B | ----------------------------------------------------------|
G | ----------------------------------------------------------|
D | -13-13-13s9-9---13-13-13-14-14----------------------------|
A | ----------------------------------------------------------|2x
D | ----------------------------------------------------------|

then
G | ---------------------|
D | -9-9-9s13------------|
A | -9-9-9s13------------|
D | -9-9-9s13------------|

then
G | -11---9---11---9---11---9---11-------------------------|
D | -11---9---11---9---11---9---11---9s13------------------|
A | -11---9---11---9---11---9---11---9s13------------------|
D | ---------------------------------9s13------------------|

Chorus:
E | -----------------------------------------------------|
B | -----------------------------------------------------|
G | -----------------------------------------------------|
D | -11---9---11s4---13---11---7-------------------------|4x
A | -11---9---11s4---13---11---7-------------------------|
D | -11---9---11s4---13---11---7-------------------------|

Post Chorus:
E | ----------------------------------------------------|
B | ----------------------------------------------------|
G | ----------------------------------------------------|
D | -9-9-9-9-9s11s13-14-16-14-13------------------------|
A | ----------------------------------------------------|
D | ----------------------------------------------------|

Verse

then
G |-11---9---11---9---11---9---11---9----------------------|
D |-11---9---11---9---11---9---11---9----------------------|
A |-11---9---11---9---11---9---11---9----------------------|
D | -------------------------------------------------------|

Chorus 4x

Drums then
D | -11---9----------|
A | -11---9----------|
D | -11---9----------|

Drums again then
D | -11---9----------|
A | -11---9----------|
D | -11---9----------|

Bridge: guitar 2
E | -------------------------------------------|
B | -------------------------------------------|
G | -------------------------------------------|
D | -11---11---11---11---11---11---------------| all through bridge
A | -11---11---11---11---11---11---------------|
D | -11---11---11---11---11---11---------------|

Bridge: Guitar 2
E | -------------------------------------------------------------------------------------------|
B |--------------------------------------------------------------------------------------------|
G | -------------------------------------------------------------------------------------------|
D | -11-13-14-18-14-13h14---11-13-14-16-14-13---11-13-14-18-14-13h14---11-13h14-9s13h14--------|4x
A | -------------------------------------------------------------------------------------------|
D | -------------------------------------------------------------------------------------------|

Chorus 5x

Ending: guitar 2
E | ----------------------------------------------------|
B | ----------------------------------------------------|
G | ----------------------------------------------------|
D | -11---11---11---11---11-----------------------------|
A | -11---11---11---11---11-----------------------------|4x
D | -11---11---11---11---11-----------------------------|

Ending: guitar 1
D | -------------------------------9s11-13h14-13s9-----------|
A | ---------------------------------------------------------|4x
D | ---------------------------------------------------------|

This is a really fun song. Please rate.
God Bless,
tl_guitarnut

Comments about this tab

tl_guitarnut - 2006-06-10

If somebody would comment on this that would be great


tl_guitarnut - 2006-06-11

Please comment, I worked really hard on this tab and I would like some input


3rd Bassman - 2006-06-22

hey man... pretty good tab, i gave it a 4 because there was just something that i cant quite place that sounds a little off... but then again, its almost 11 p.m. and i just got home... but, when i find it, ill tell ya... if i remember.. good tab, and it sounds like after the 1st B power chord in the chorus he slides into the next C#... ok ... good one!


tl_guitarnut - 2006-06-23

okay thanks, I'm always open to corrections


guitarcordfreak - 2006-07-20

I give it a 3. you did ok on the intro and verse( I just play it differently) but the chorus was off by quite a bit! but over all: good job!!!


tl_guitarnut - 2006-07-25

thanks a lot for the comment! I thought it sounded like he was playing something different in the chorus, if you find it post it. Thanks again!!


Add a comment/correction

Complimentary Christian Ringtones
Dadamobile and CGR have teamed up to bring your favorite Christian artists right to your phone. Sign up today and get 10 complementary ringtones!
Tab Country
Did you know CGR has a sister site w/ country guitar tabs? Well we do! Its called Tab Country. It has a great archive with a lot of country tabs.
Rockin Tabs
Are you looking for a site that has rock guitar tabs? Then Rockintabs.com is the place for you. It is a budding site with many rock guitar tabs. Submit your tab today.
Tab Gallery
Tab Gallery has a compilation of christian, rock, and country tabs all in one place. Come visit us.