Guitar Tabs
song title    band name

Join Us Today!

Don't strum alone...
be a part of the largest online Christian music community. Browse thousands of guitar tabs and chat w/ musicians like yourself.


It's Free!

This tab has not yet been rated for accuracy.Sorry, but you must be logged in to rate this tab.
Click here to log-in, or you can click here to register.
(Registration is free)

All songs owned by corresponding publishing company. If you make copies of any song on this website, be sure to report your usage to CCLI.
Submitted by: carlyarab

This guitar tab is from the CD Nicole C. Mullen Live in Cincinati.
It is accurate and very beautiful.

Intro only to "On My Knees"  by Nicole C. Mullen.  It takes too long to put it 
on the computer.  I have all of it written out on paper.

Transcribed by Carl Yarab (carlyarab@yahoo.com)

Let me know what you think.

   A                                     A/F#

1-----------0-----------------------------------------0---------------
2----------------------2-----------------------------------------0----
3----1-h-2----------2-----2--------------------1-h-2----------2-------
4---------------------------------------------------------------------
5--0-------------0------------------------2---------------------------
6-------------------------------------------------------2-------------



    E               D                   A         A add D
   
1---4-----4-h-5-----2-----------------------------------------------
2-------5-----------------2-------------2---------3-----------2--3--
3-----4----------------2-----2-----------------2-----------2--2--2--
4---0---------------0-----------------------2-----------2-----------
5-------------------------------------------------------------------
6---------------------------------------0---------------------------
 

Comments about this tab

No comments/corrections found. Add your own

Complimentary Christian Ringtones
Dadamobile and CGR have teamed up to bring your favorite Christian artists right to your phone. Sign up today and get 10 complementary ringtones!
Tab Country
Did you know CGR has a sister site w/ country guitar tabs? Well we do! Its called Tab Country. It has a great archive with a lot of country tabs.
Rockin Tabs
Are you looking for a site that has rock guitar tabs? Then Rockintabs.com is the place for you. It is a budding site with many rock guitar tabs. Submit your tab today.
Tab Gallery
Tab Gallery has a compilation of christian, rock, and country tabs all in one place. Come visit us.