Guitar Tabs
song title    band name

Join Us Today!

Don't strum alone...
be a part of the largest online Christian music community. Browse thousands of guitar tabs and chat w/ musicians like yourself.


It's Free!

This tab has been rated a 5.00 out of 5 for accuracy. (2 votes)Sorry, but you must be logged in to rate this tab.
Click here to log-in, or you can click here to register.
(Registration is free)

All songs owned by corresponding publishing company. If you make copies of any song on this website, be sure to report your usage to CCLI.
Submitted by: Third_Day_Rocks

                                  TOOK MY PLACE
                            As recorded by Third Day
                           (From the 1999 Album TIME)

Words by Mac Powell
Music by Third Day

Intro:
   A
  Gtr I
|---------------------|---------------|
|---------------------|---------------|
|---------------------|---------------|
|-7--7-7-9b10r(9)-7-0-|-5h7-7-4----4--|
|-0--0-0-0----(0)-0-0-|-0---0-0--0-0--|
|---------------------|---------------|
|
| Gtr II
|---------------------|---------------|
|---------------------|---------------|
|---------------------|---------------|
|---------------------|---------------|
|---------------------|---------------|
|---------------------|---------------|
                                         3x
||----------------------|----------------||
||o---------------------|---------------o||
||----------------------|----------------||
||--7--7-7-9b10r(9)-7-0-|-5h7-7-4----4---||
||o-0--0-0-0----(0)-0-0-|-0---0-0--0-0--o||
||----------------------|----------------||
|
|                                        3x
||----------------------|----------------||
||o---------------------|---------------o||
||-----2----------------|----------------||
||-----2---4b5r=(4)-2---|-0h2-x-0--x-0---||
||o-0-------------------|-----x-0--x-0--o||
||----------------------|----------------||

 Verse 1:
  PM---------------------------------------------------------|
  A                   G               A                 G  D         3x
|---------------|-----------------||----------------|----------------||
|---------------|-----------------||o---------------|---------------o||
|---------------|-----------------||----------------|----------------||
|---7------7----|-----5--4-(4)----||----7------7----|---5--4-(4)-----||
|-0----0-0----0-|--0--0--0-(0)----||o-0----0-0----0-|-0-0--0-(0)----o||
|---------------|-----------------||----------------|----------------||
|
|                                                                    3x
|---------------|-----------------||----------------|----------------||
|---------------|-----------------||o---------------|---------------o||
|---------------|-----------------||----------------|----------------||
|-2-------------|-(2)-------------||----------------|----------------||
|-0-------------|-(0)-------------||o---------------|---------------o||
|---------------|-----------------||----------------|----------------||

 Chorus:
(Gtr 1 plays chords)
  D      G    A
|---------------|-----------------5------5---|
|---------------|---------------5------5-----|
|---------------|------------7b9----7b9------|
|---------------|----------------------------|
|---------------|----------------------------|
|---------------|----------------------------|

  G           D       A
|--------------------------|-------5---------------|
|--------------------------|-----------------------|
|-(7)====================b9|=(9)------(9)r7--p5----|
|--------------------------|--------------------7--|
|--------------------------|-----------------------|
|--------------------------|-----------------------|

  D        G    A                             E          G
|--------------------|-------5--------------|----------|------|
|--------------------|----------------------|----------|------|
|---------------7b9==|=(7)r----7pb9r=(7)-5--|----------|------|
|-(7)----------------|----------------------|-2--------|-5----|
|--------------------|----------------------|-2--------|-5----|
|--------------------|----------------------|-0--------|-3----|

  A
|---------------------|---------------|---------------------|---------------||
|---------------------|---------------|---------------------|---------------||
|---------------------|---------------|---------------------|---------------||
|-7--7-7-9b10r(9)-7-0-|-5h7-7-4----4--|-7--7-7-9b10r(9)-7-0-|-5h7-7-4----4--||
|-0--0-0-0----(0)-0-0-|-0---0-0--0-0--|-0--0-0-0----(0)-0-0-|-0---0-0--0-0--||
|---------------------|---------------|---------------------|---------------||
|
|---------------------|---------------|---------------------|---------------||
|---------------------|---------------|---------------------|---------------||
|---------------------|---------------|---------------------|---------------||
|----2---4b5r=(4)-2---|-0h2---0----0--|----2---4b5r=(4)-2---|-0h2---0----0--||
|-0-------------------|-----0-0--x-0--|-0-------------------|-----0-0--x-0--||
|---------------------|---------------|---------------------|---------------||

 Verse 2:
  PM---------------------------------------------------------|
  A                   G  D          A                 G  D
|---------------|-----------------|---------------|-----------------|
|---------------|-----------------|---------------|-----------------|
|---------------|-----------------|---------------|-----------------|
|---7------7----|-----5--4-(4)----|---7------7----|---5--4-(4)------|
|-0----0-0----0-|--0--0--0-(0)----|-0----0-0----0-|-0-0--0-(0)------|
|---------------|-----------------|---------------|-----------------|
|
|---------------|-----------------|---------------|-----------------|
|---------------|-----------------|---------------|-----------------|
|---------------|-----------------|---------------|-----------------|
|-2-------------|-(2)-------------|---------------|------4-----4--4-|
|-0-------------|-(0)-------------|---------------|------0-----0--0-|
|---------------|-----------------|---------------|-----------------|

  PM-------------------------------------------------------|
  A                   G  D          A                 G  D
|---------------|-----------------|---------------|---------------||
|---------------|-----------------|---------------|---------------||
|---------------|-----------------|---------------|---------------||
|---7------7----|-----5--4-(4)----|---7------7----|---5--4-(4)----||
|-0----0-0----0-|--0--0--0-(0)----|-0----0-0----0-|-0-0--0-(0)----||
|---------------|-----------------|---------------|---------------||
|
|---------------|-----------------|---------------|---------------||
|---------------|-----------------|---------------|---------------||
|-2-------------|-(2)-------------|---------------|---------------||
|-2-------------|-(2)-------------|---------------|---------------||
|-0-------------|-(0)-------------|---------------|---------------||
|---------------|-----------------|---------------|---------------||


 Play Chorus


 Guitar Solo:
  Bb               F
|----------------|------------------------------|
|----------------|----------11------------------|
|-10-----9---7---|-10b12-------12r10--(10)------|
|----------------|------------------------------|
|----------------|------------------------------|
|----------------|------------------------------|

  C                       G          A        Bb
|-----------------------|-----------------------|
|-----8-----------------|-----------------------|
|-7b9------7p5-7b9r(7)--|-/5p0--3p0-(0)---------|
|-----------------------|-----------------------|
|-----------------------|-----------------------|
|-----------------------|-----------------------|

  Bb               F
|----------------|------------------------------|
|----------------|-----------11-----------------|
|-10-----9---7---|-10b12--------12r10--(10)-----|
|----------------|------------------------------|
|----------------|------------------------------|
|----------------|------------------------------|

  C                                           
|-/13---------------------------------|
|-------------17p15-18p15-17p15-------| 
|-------------------------------17p15-| 
|-------------------------------------| 
|-------------------------------------| 
|-------------------------------------| 

  C
|--------------------------------------------|
|-----------------------15-------17h18p17p15-|
|-17b18r(17)-(17)-15h17----17p15-------------|
|--------------------------------------------|
|--------------------------------------------|
|--------------------------------------------|

  C
|--------------------------------------12-15---||
|-----------------------------12-13-15---------||
|-17b19r17p15-17b19r(17)-(17)------------------||
|----------------------------------------------||
|----------------------------------------------||
|----------------------------------------------||

 Verse 3:
  A
|--------------------------------|---------------|
|--------------------------------|---------------|
|--------------------------------|---------------|
|--7----------7-7---9b10r(9)-7-0-|-5h7-7-4----4--|
|--0----------0-0---0----(0)-0-0-|-0---0-0--0-0--|
|--------------------------------|---------------|
|  
|-15b17==(15)-----(15)r----------|---------------|
|--------------------------------|---------------|
|--------------------------------|---------------|
|--------------------------------|---------------|
|--------------------------------|---------------|
|--------------------------------|---------------|

|---------------------|---------------|
|---------------------|---------------|
|---------------------|---------------|
|-7--7-7-9b10r(9)-7-0-|-5h7-7-4----4--|
|-0--0-0-0----(0)-0-0-|-0---0-0--0-0--|
|---------------------|---------------|
|
|---------------------|---------------|
|---------------------|---------------|
|----2----------------|---------------|
|----2---4b5r=(4)-2---|-0h2-x-0--x-0--|
|-0-------------------|-----x-0--x-0--|
|---------------------|---------------|

  A
|---------------------|---------------|---------------------|---------------||
|---------------------|---------------|---------------------|---------------||
|---------------------|---------------|---------------------|---------------||
|-7--7-7-9b10r(9)-7-0-|-5h7-7-4----4--|-7--7-7-9b10r(9)-7-0-|-5h7-7-4----4--||
|-0--0-0-0----(0)-0-0-|-0---0-0--0-0--|-0--0-0-0----(0)-0-0-|-0---0-0--0-0--||
|---------------------|---------------|---------------------|---------------||
|
|---------------------|---------------|---------------------|---------------||
|---------------------|---------------|---------------------|---------------||
|---------------------|---------------|---------------------|---------------||
|----2---4b5r=(4)-2---|-0h2---0----0--|----2---4b5r=(4)-2---|-0h2---0----0--||
|-0-------------------|-----0-0--x-0--|-0-------------------|-----0-0--x-0--||
|---------------------|---------------|---------------------|---------------||

Out-Chorus:
  D      G    A                                   G         D    A
|---------------|-----------------5-----5-------|------------------|
|---------------|---------------5---------------|------------------|
|---------------|-----7b9==(7)r-----7b9---7b9===|=(7)r-------------|
|---------------|-------------------------------|------------------|
|---------------|-------------------------------|------------------|
|---------------|-------------------------------|------------------|

|------------------------------------------------------------------------|
|--7b8r(7)-(7)b8r(7)-(7)b8r(7)-(7)b8r(7)-(7)b8r(7)-(7)b8r(7)-(7)b8r(7)---|
|------------------------------------------------------------------------|
|------------------------------------------------------------------------|
|------------------------------------------------------------------------|
|------------------------------------------------------------------------|

  D                                G    A
|---------------------------------------------|
|-(7)b8r(7)-(7)b8r(7)-(7)b10==(7)r------8b10==|
|---------------------------------------------|
|---------------------------------------------|
|---------------------------------------------|
|---------------------------------------------|

                           E          G
|------5--8--------------|----------|------|
|-(8)r-------8b10==(8)r--|----------|------|
|------------------------|----------|------|
|------------------------|-2--------|-5----|
|------------------------|-2--------|-5----|
|------------------------|-0--------|-3----|

  A
|---------------------|---------------|---------------------|---------------|
|---------------------|---------------|---------------------|---------------|
|---------------------|---------------|---------------------|---------------|
|-7--7-7-9b10r(9)-7-0-|-5h7-7-4----4--|-7--7-7-9b10r(9)-7-0-|-5h7-7-4----4--|
|-0--0-0-0----(0)-0-0-|-0---0-0--0-0--|-0--0-0-0----(0)-0-0-|-0---0-0--0-0--|
|---------------------|---------------|---------------------|---------------|
|
|---------------------|---------------|---------------------|---------------|
|---------------------|---------------|---------------------|---------------|
|---------------------|---------------|---------------------|---------------|
|----2---4b5r=(4)-2---|-0h2---0----0--|----2---4b5r=(4)-2---|-0h2---0----0--|
|-0-------------------|-----0-0--x-0--|-0-------------------|-----0-0--x-0--|
|---------------------|---------------|---------------------|---------------|

  A
|---------------------|---------------|--------------------|--------*|
|---------------------|---------------|--------------------|--------*|
|---------------------|---------------|--------------------|--------*|
|-7--7-7-9b10r(9)-7-0-|-5h7-7-4----4--|-7--7-7-9b10r(9)-7--|-(7)----*|
|-0--0-0-0----(0)-0-0-|-0---0-0--0-0--|-0--0-0-0----(0)-0--|-(0)----*|
|---------------------|---------------|--------------------|--------*|
|
|---------------------|---------------|--------------------|--------*|
|---------------------|---------------|--------------------|--------*|
|---------------------|---------------|--------------------|--------*|
|----2---4b5r=(4)-2---|-0h2---0----0--|----2---4b5r=(4)-2--|-(2)----*|
|-0-------------------|-----0-0--x-0--|-0------------------|--------*|
|---------------------|---------------|--------------------|--------*|

 Generated using Power Tab Editor by Brad Larsen

Comments about this tab

Third_Day_Rocks - 2006-05-26

Please rate.
Thanks


josh111 - 2006-05-31

yes this seems 2 b right thank you 4 tabbing


Add a comment/correction

Complimentary Christian Ringtones
Dadamobile and CGR have teamed up to bring your favorite Christian artists right to your phone. Sign up today and get 10 complementary ringtones!
Tab Country
Did you know CGR has a sister site w/ country guitar tabs? Well we do! Its called Tab Country. It has a great archive with a lot of country tabs.
Rockin Tabs
Are you looking for a site that has rock guitar tabs? Then Rockintabs.com is the place for you. It is a budding site with many rock guitar tabs. Submit your tab today.
Tab Gallery
Tab Gallery has a compilation of christian, rock, and country tabs all in one place. Come visit us.