Guitar Tabs
song title    band name

Join Us Today!

Don't strum alone...
be a part of the largest online Christian music community. Browse thousands of guitar tabs and chat w/ musicians like yourself.


It's Free!

This tab has been rated a 5.00 out of 5 for accuracy. (3 votes)Sorry, but you must be logged in to rate this tab.
Click here to log-in, or you can click here to register.
(Registration is free)

All songs owned by corresponding publishing company. If you make copies of any song on this website, be sure to report your usage to CCLI.
Submitted by: akaukal

Song:Up Comes Down
Album:Set it Off[2004]
Artist:Thousand Foot Krutch
Tuning:Drop D

The tab for this song already on the site was missing some stuff, and the 
rhythm was way off. Hopefully this one will be better.

Intro:Bass and drums then one note(with some kind of effect)
e----
b----
g-7--
D----
A----
D----

BREAK!
e-------------------------------------
b-------------------------------------
g-------------------------------------
D-0-2-03-0-2-03-02h3-0-2-03-0-2-0-66--
A-0-2-03-0-2-03-02h3-0-2-03-0-2-0-66--
D-0-2-03-0-2-03-02h3-0-2-03-0-2-0-66--

e-------------------------------------
b-------------------------------------
g-------------------------------------
D-0-2-03-0-2-03-02h3-0-2-03-0-2-0-65--
A-0-2-03-0-2-03-02h3-0-2-03-0-2-0-65--
D-0-2-03-0-2-03-02h3-0-2-03-0-2-0-65--

play this just before verse:
e----
b----
g----
D-0--
A-0--
D-0--

Verse:
e---------------------
b---------------------
g---------------------
D-5/7--9/5--0h2--2h3--
A---------------------
D---------------------

Chorus:This took me over an hour to figure out, and i'm still only 90% sure,
so if it's wrong, put the correction in the comments box.
e--------------------------------
b--------------------------------
g--------------------------------
D-0--000--000--000--555h6-3h5-6--
A-0--000--000--000--555h6-3h5-6--
D-0--000--000--000--555h6-3h5-6--
  .  ...  ...  ...
e------------------------------
b------------------------------
g------------------------------
D-0--000--000--000--555h6-3-0--
A-0--000--000--000--555h6-3-0--
D-0--000--000--000--555h6-3-0-<--------------------------------|
  .  ...  ...  ...          .                                  |   
play through twice, except leave this chord out the second time|

BREAK! again

I guess this part would be the 2nd verse:only play the 1st part once
e-----------|--------xx-----xx------------
b-----------|--------xx-----xx------------
G-----------|--------xx-----xx------------however many times
D-----------|----000----000----0--0h1/10--
A-----------|----000----000----0--0h1/10--
D-0-000-0000|----000----000----0--0h1/10--

Chorus 2:slightly different than 1st Chorus.
e--------------------------------
b--------------------------------
g--------------------------------
D-0--000--000--000-5556-356-3-0--
A-0--000--000--000-5556-356-3-0--
D-0--000--000--000-5556-356-3-0--
  .  ...  ...  ... .... ... . .

e--------------------------
b--------------------------
g--------------------------
D-000--000--000--5556-3-5--
A-000--000--000--5556-3-5--
D-000--000--000--5556-3-5--
  ...  ...  ...  .... . .

Bridge:I'm not sure about these harmonics
e--------------------------------------
b--------------------------------------
g--------------------------------------i think x2
D-00-0-----00-0-----00-0-----55555-36--
A-00-0-----00-0-----00-0-----55555-36--
D-00-0*5*5-00-0*5*5-00-0*5*5-55555-36--

Clean guitar joins in with the bass then throw some dist. on last 2 chords:
e-------------------------------------
b-------------------------------------
g-------------------------------------
D-0-2-03-0-2-03-02h3-0-2-03-0-2-0-66--
A---------------------------------66--
D---------------------------------66--

BREAK! again

That's it. Like I said, the Chorus took forever to do, so if it's wrong, please
post the corrections in the comments box.

Still Sleepwalking,
Patrick

Comments about this tab

akaukal - 2006-05-19

AACCKKK! I forgot to put part in! on the first part of the bridge I put
e-------------
b-------------
g-------------
D-------------
A-------------
D-0-000-0000--
should be
e-------------
b-------------
g-------------
D-0-000-0000--
A-0-000-0000--
D-0-000-0000--
... ....

sorry!


akaukal - 2006-05-19

arrgh! the palm mutes didn't line up! just mute every chord i just posted except the first one! stupid...


Dani_Boy - 2006-05-20

The comment box is a bit irritating, but you can learn to handle it. Spaces never line up more than one at the time, I think it's some setting they have so that you don't happen to make too many spaces between words in a regular text. Use something else instead of spaces and explain that the symbol is for lining up the dots.

In the comment box when you are typing in your message, the box is averagely 80 characters wide. When it appears as a correction, it's averagely 70 characters wide. So when I'm writing something that's not just regular text (Like a sheet of tab) in the comment box, I try to leave atleast 10 or 12 characters blank. Splitting up a longer piece of tab into smaller parts usually does the trick.


Dani_Boy - 2006-05-20

By the way, I think the intro note and the first verse uses tremolo effect.


akaukal - 2006-05-30

Someone rate it please!


Te eF Kay - 2006-09-15

ooh!go akaukal!I'm gonna try this!


Te eF Kay - 2006-09-15

yup!it's a winning 5!


akaukal - 2006-10-01

YAY! thanks!


moocow817 - 2007-04-16

okay, well I've sort of played through this (I'm not too great at guitar yet), but as far as I can see, it's spot on. Keep up the good work mate!


Add a comment/correction

Complimentary Christian Ringtones
Dadamobile and CGR have teamed up to bring your favorite Christian artists right to your phone. Sign up today and get 10 complementary ringtones!
Tab Country
Did you know CGR has a sister site w/ country guitar tabs? Well we do! Its called Tab Country. It has a great archive with a lot of country tabs.
Rockin Tabs
Are you looking for a site that has rock guitar tabs? Then Rockintabs.com is the place for you. It is a budding site with many rock guitar tabs. Submit your tab today.
Tab Gallery
Tab Gallery has a compilation of christian, rock, and country tabs all in one place. Come visit us.