Guitar Tabs
song title    band name

Join Us Today!

Don't strum alone...
be a part of the largest online Christian music community. Browse thousands of guitar tabs and chat w/ musicians like yourself.


It's Free!

This tab has been rated a 3.00 out of 5 for accuracy. (1 vote)Sorry, but you must be logged in to rate this tab.
Click here to log-in, or you can click here to register.
(Registration is free)

All songs owned by corresponding publishing company. If you make copies of any song on this website, be sure to report your usage to CCLI.
Submitted by: dou8g

song: losing sight
CD: shadows are security
artist: as I lay dying
copyright metal blade records 2005

tabbed by Doug Suitt
tuning drop c

intro and verse
guitar one 
|------------------------------------------------------------------------|
|------------------------------------------------------------------------|
|------------------------------------------------------------------------|
|-000-000-000-------000-000--------7---000-000-000-------000------000---2|
|-000-000-000--5-8--000-000--0-5-0---7-000-000-000--5-8--000----3-000-0--|
|-000-000-000-------000-000------------000-000-000-------000--3---000----|


then chorus
guitar one
|--------------------------------------------------------------------------|
|--------------------------------------------------------------------------|
|--------------------------------------------------------------------------|
|-0-000-000-----7-7-5--7-5-------------0-000-000-----7-7-5-10-8-7-5-8-7-5--|
|-0-000-000-5-8------------8-7-8-7-5-3-0-000-000-5-8----------------------8|
|-0-000-000----------------------------0-000-000---------------------------|

then this pre-verse
|------------------------------------------------------------------------|
|------------------------------------------------------------------------|
|------------------------------------------------------------------------|
|-0-00000-------------------------0-00000-----------7---10---------------|
|-0-00000-8-------7---------------0-00000--5p0--7/8---7----7-------------|
|-0-00000---0-0-0----10--00-------0-00000--------------------------------|

|------------------------------------------------------------------------|
|------------------------------------------------------------------------|
|------------------------------------------------------------------------|
|-0-00000-------------------------0-00000-777-101010---------------------|
|-0-00000-8-------7---------------0-00000-777-101010---------------------|
|-0-00000---0-0-0----10--00-------0-00000--------------------------------|

the last time this is played both guitars play it then
back to intro/verse
then this by guitar one 
|------------------------------------------------------------------------|
|------------------------------------------------------------------------|
|---------------------------------------------------------------7---10---|
|-000-000-000-------000-000--------7---000-000-000-------7--------7----7-|
|-000-000-000--5-8--000-000--0-5-0---7-000-000-000--5-8----8-7-8---------|
|-000-000-000-------000-000------------000-000-000-----------------------|


|------------------------------------------------------------------------|
|------------------------------------------------------------------------|
|------------------------------------------------------------------------|
|-000-000-000-------000-000--------7---000-000-000-------000-000-------7-|
|-000-000-000--5-8--000-000--0-5-0---7-000-000-000--5-8--000-000-0-5-7---|
|-000-000-000-------000-000------------000-000-000-------000-000---------|


then the pre-verse
then the chorus
end on the open C

that's pretty much the song post any comments or corrections I'm sure there 
will be some God bless
Doug.

Comments about this tab

No comments/corrections found. Add your own

Complimentary Christian Ringtones
Dadamobile and CGR have teamed up to bring your favorite Christian artists right to your phone. Sign up today and get 10 complementary ringtones!
Tab Country
Did you know CGR has a sister site w/ country guitar tabs? Well we do! Its called Tab Country. It has a great archive with a lot of country tabs.
Rockin Tabs
Are you looking for a site that has rock guitar tabs? Then Rockintabs.com is the place for you. It is a budding site with many rock guitar tabs. Submit your tab today.
Tab Gallery
Tab Gallery has a compilation of christian, rock, and country tabs all in one place. Come visit us.