Guitar Tabs
song title    band name

Join Us Today!

Don't strum alone...
be a part of the largest online Christian music community. Browse thousands of guitar tabs and chat w/ musicians like yourself.


It's Free!

This tab has been rated a 4.00 out of 5 for accuracy. (1 vote)Sorry, but you must be logged in to rate this tab.
Click here to log-in, or you can click here to register.
(Registration is free)

All songs owned by corresponding publishing company. If you make copies of any song on this website, be sure to report your usage to CCLI.
Submitted by: dou8g

song: confined
CD: shadows are security
artist: as i lay dying
coptright metal blade records 2005

tabbed by doug suitt
tuning drop c

intro with all open C cords figure out strum pattern
intro 2
guitar one
|--------------------------------------------------------------------------|
|--------------------------------------------------------------------------|
|--------------------------------------------------------------------------|
|--------------------------------------------------------------------------|
|----5-7----8-10---8-7----------5-7----8-7---8-7---------------------------|
|-0-0---0-0------0-----10-12-0-0---0-0-----0-----10-12---------------------|


rythym guitar(guitar two)
|--------------------------------------------------------------------------|
|--------------------------------------------------------------------------|
|--------------------------------------------------------------------------|
|-0--------------------------0---------------------------------------------|
|-0--------------------------0---------------------------------------------|
|-0--------------------------0---------------------------------------------|


verse
guitars one and two
|--------------------------------------------------------------------------|
|--------------------------------------------------------------------------|
|--------------------------------------------------------------------------|
|--------------------------------------------------------------------------|
|----5-7----8-10---8-7----------5-7----8-7---8-7---------------------------|
|-0-0---0-0------0-----10-12-0-0---0-0-----0-----10-12---------------------|
the second time through this verse lead there's a harmonic so it looks like 

this
|--------------------------------------------------------------------------|
|--------------------------------------------------------------------------|
|--------------------------------------------------------------------------|
|--------------------------------------------------------------------------|
|----5-7----8-10---8-7----------5-7----8-7---8-7-3--5*---------------------|
|-0-0---0-0------0-----10-12-0-0---0-0-----0-------------------------------|

then guitars one and two  
|--------------------------------------------------------------------------|
|--------------------------------------------------------------------------|
|--------------------------------------------------------------------------|
|--------------------------------------------------------------------------|
|-----------8-7-----------10-8---------------------------------------------|
|-0-000-000-----0-000-000------0-000-8-0-7-0-5-0-7-5-3---------------------|

chorus
guitar one
|------------------------|
|------------------------|
|------------------------|
|------------------------|
|----5-7-12-10-7h8-10-8--|
|-0-0-0-0--0--0---0--0-0-|

guitar two
|---------------------------------------------------------------|
|---------------------------------------------------------------|
|---------------------------------------------------------------|
|8-8-8-8-8-8-8-8-8-5-5-5-5-5-5-5-5-5-0-0-0-0-0-0-0-0-0-0-0-0-0-0|
|8-8-8-8-8-8-8-8-8-5-5-5-5-5-5-5-5-5-0-0-0-0-0-0-0-0-0-0-0-0-0-0|
|8-8-8-8-8-8-8-8-8-5-5-5-5-5-5-5-5-5-0-0-0-0-0-0-0-0-0-0-0-0-0-0|

then
guitar one
|------------------------|
|------------------------|
|------------------------|
|------------------------|
|----5-7-12-10-7h8-10-8--|
|-0-0-0-0--0--0---0--0-0-|

guitar two
|------------------------|
|------------------------|
|------------------------|
|8------5------0---------|
|8------5------0---------|
|8------5------0---------|

repeat intro 2 and verse
then outro by guitars one and two  
|--------------------------------------------------------------------------|
|--------------------------------------------------------------------------|
|--------------------------------------------------------------------------|
|--------------------------------------------------------------------------|
|-----------8-7-----------10-8---------------------------------------------|
|-0-000-000-----0-000-000------0-000-8-0-7-0-5-0-7-5-3---------------------|



post any corrections
thanks,
Doug.

Comments about this tab

Adam K - 2006-06-19

The intro is not just the open C chord...it goes like this

C[-1/1-0-0-0-0-0-0--]
G[-1/1-0-0-0-0-0-0--]x2
C[-1/1-0-0-0-0-0-0--]
...............


Adam K - 2006-06-19

the palm muting got messed up


Add a comment/correction

Complimentary Christian Ringtones
Dadamobile and CGR have teamed up to bring your favorite Christian artists right to your phone. Sign up today and get 10 complementary ringtones!
Tab Country
Did you know CGR has a sister site w/ country guitar tabs? Well we do! Its called Tab Country. It has a great archive with a lot of country tabs.
Rockin Tabs
Are you looking for a site that has rock guitar tabs? Then Rockintabs.com is the place for you. It is a budding site with many rock guitar tabs. Submit your tab today.
Tab Gallery
Tab Gallery has a compilation of christian, rock, and country tabs all in one place. Come visit us.