Guitar Tabs
song title    band name

Join Us Today!

Don't strum alone...
be a part of the largest online Christian music community. Browse thousands of guitar tabs and chat w/ musicians like yourself.


It's Free!

This tab has been rated a 4.50 out of 5 for accuracy. (2 votes)Sorry, but you must be logged in to rate this tab.
Click here to log-in, or you can click here to register.
(Registration is free)

All songs owned by corresponding publishing company. If you make copies of any song on this website, be sure to report your usage to CCLI.
Submitted by: akaukal

Song:Set it Off
Artist:Thousand Foot Krutch
Album:Set it Off[2004]
Copyright Tooth & Nail Records


I played around with the other version of this song, and I think that the intro
was wrong in it. And the bridge left out quite a few things. So this should be
better hopefully.

/=slide up
\=slide down
h=hammer on
p=pull of
x=scratching

Verse Pattern #1: Mostly only drums and bass but there is guitar
e-------------------
b-------------------
g-------------------the first 2 notes could be palm muted, but I don't
D--------------5-3--thinks so.
A--------3-5-3------
D-00-0-5------------

Pattern #2:
e---------------------
b---------------------
g---------------------
D---------------------
A--------3-5-3-0------
D-00-0-5---------3----

Pattern #3:Like #2 with a twist
e-----------------------
b-----------------------
g-----------------------
D-----------------------
A--------3-55-33-0------
D-00-0-5-----------3-0--
pm         .. .. .      

Pre-Chorus: This can be a little tricky, but you'll get the hang of it
e-----------------------
b-----------------------
g-----------------------x3
D-----------------------
A-----------------------
D-00-3h5-0-8h10-00-7p6--

Then move into a second pattern:
e-----------------------
b-----------------------
g-----------------------
D-----------------------
A-----------------------
D-00-5h7-0-10-8-6/7-77--

Now SET IT OFF!!!
e-----------------------
b-----------------------
g-----------------------x3
D-00-3h5-0-8h10-00-7p6--
A-00-3h5-0-8h10-00-7p6--
D-00-3h5-0-8h10-00-7p6--

e-----------------------
b-----------------------
g-----------------------
D-00-5h7-0-10-8-6/7-77--
A-00-5h7-0-10-8-6/7-77--
D-00-5h7-0-10-8-6/7-77--

Play this just before 2nd verse:
e----
b----
g----
D-0--
A-0--
D-0--

Play Verse
Set it Off again

Bridge now: SOO much fun
e---------------------------------------
b---------------------------------------
g---------------------------------------
D-2xx-2/3\2-2xxx2/33-2xx2/3\2-2-000000--
A-2xx-2/3\2-2xxx2/33-2xx2/3\2-2-000000--
D-2xx-2/3\2-2xxx2/33-2xx2/3\2-2-000000--

Then play intro thing again and end on
e----
b----
g----
D-0--
A-0--
D-0--

There's the whole song. Hope you like it. Please rate and leave a comment.

Still Sleepwalking,
Patrick

Comments about this tab

Dani_Boy - 2006-05-19

No doubt this tab is good! It's not perfect if you want to be exact with all the strumming rhythm and so on, but it looks really good. I hadn't bothered to learn the chorus, but now I can play it thanks to your tab! Good job on a great tab for a great song! I'll come back with more comments later.


Dani_Boy - 2006-05-19

Oh, correction for the intro/main riff:

G|----------------------|
D|-----------------5--3-|
A|----------35--3-------|
D|--0--0--35------------|

G|----------------------|
D|----------------------|
A|----------35--3--0----|
D|--0--0--35----------3-|

And so on...

Basically the same thing as yours. I just tried to make the rhythm more specific, plus I added a 3 fretted note instead of a loose string. You'll see what I mean. Good job anyways!


Dani_Boy - 2006-05-19

Sorry, one more thing about the intro. I think they use hammer ons like this:
G|------------------------|
D|-------------------5--3-|
A|-----------3h5--3-------|
D|--0--0--3h5-------------|

G|------------------------|
D|------------------------|
A|-----------3h5--3--0----|
D|--0--0--3h5-----------3-|

Sounds a bit cooler that way.


akaukal - 2006-05-19

thanks for the hammer on tip. sounds way better


Dani_Boy - 2006-05-20

You're welcome! :)


Te eF Kay - 2006-05-26

OOOH!A 2004 version!Good job ill try it for ya!


Te eF Kay - 2006-05-26

OOOH!A 2004 version!Good job i`ll try it for ya!


Te eF Kay - 2006-05-26

oops!ive been doing that a lot!hehe!


Te eF Kay - 2006-08-31

I put my version on last night but I was tired so I probably made some typing
mistakes!


Add a comment/correction

Complimentary Christian Ringtones
Dadamobile and CGR have teamed up to bring your favorite Christian artists right to your phone. Sign up today and get 10 complementary ringtones!
Tab Country
Did you know CGR has a sister site w/ country guitar tabs? Well we do! Its called Tab Country. It has a great archive with a lot of country tabs.
Rockin Tabs
Are you looking for a site that has rock guitar tabs? Then Rockintabs.com is the place for you. It is a budding site with many rock guitar tabs. Submit your tab today.
Tab Gallery
Tab Gallery has a compilation of christian, rock, and country tabs all in one place. Come visit us.