Guitar Tabs
song title    band name

Join Us Today!

Don't strum alone...
be a part of the largest online Christian music community. Browse thousands of guitar tabs and chat w/ musicians like yourself.


It's Free!

This tab has been rated a 4.50 out of 5 for accuracy. (2 votes)Sorry, but you must be logged in to rate this tab.
Click here to log-in, or you can click here to register.
(Registration is free)

All songs owned by corresponding publishing company. If you make copies of any song on this website, be sure to report your usage to CCLI.
Submitted by: akaukal

Song:Come Along
Artist:Thousand Foot Krutch
Album:Set it Off[2004]
Copyright 2004 Tooth & Nail Records

I didn't see a very acurate tab for this one, so I'm doing it myself(and I did
NOT want you,Dani_Boy,to beat me to it!). It is in Drop D.

/=slide
|=only play on second time through
x=dead note(scratching)
.=palm mute
*=rest(mute note)
Intro:
e-----------------------------------------------------------|------
b-----------------------------------------------------------|------
g----------------------------555555---------55555-----------|------
D-55555---------2222---------555555---------55555-----------|-5----
A-55555-5-0-3-2-2222-5-0-3-2-333333-5-0-3-2-33333-5-3-2-0-2-|-5----
D-55555---------2222----------------------------------------|-5----

Pre-Verse(The part just before he starts singing):
e-----------------------------------------
b-----------------------------------------
g-----------------------------------------
D----------55555555-----------------------
A-55555555-33333333-22222222-33-55-33-00--
D-55555555----------22222222--------------
  ........ ........ ........
Verse:
e--------------------------------------
b--------------------------------------
g--------------------------------------however many times
D----------55555555----------55555555--
A-55555555-33333333-22222222-33333333--
D-55555555----------22222222-----------

Verse Part 2: Rhythm is not quite right, but whatever
e---------------------------------
b---------------------------------
g---------55-5555---------55x5-5--
D-55-5555-55-5555-22-2222-55x5-5--
A-55-5555-33-3333-22-2222-33x3-3--
D-55-5555---------22-2222---------

Play Pre-Verse

Chorus:
e----------------------------------
b----------------------------------
g---------5-5-5-5---------5-5-5-5--
D-5-5-5-5-5-5-5-5-2-2-2-2-5-5-5-5--
A-5-5-5-5-3-3-3-3-2-2-2-2-3-3-3-3--
D-5-5-5-5---------2-2-2-2----------

Break:
e--------------------------------------
b--------------------------------------
g--------------------------------------
D-5----0----5-----0--------------------
A-5----0----5-----0--2/3-33-3333-32----
D-5----0----5-----0--------------------

Part 2:
e-----------------------------------------------
b-----------------------------------------------
g-----------------------------------------------
D-----------------------------------------------
A---22--------22--------22----2/3-33-3333-32----
D-5----55-0-2----55-0-0----55-------------------

Part 3:
e------------------------
b------------------------
g------------------------
D---------------------0--
A---22--------22------0--
D-5----55-0-2----55-0-0--

Bridge:("It's okay...")Part 1
e-------------------------
b-------------------------
g-------------------------
D-5----9--10--5----9--10--
A-5----9--10--5----9--10--
D-5----9--10--5----9--10--

Part 2:
e---------------------------------------------|-------
b---------------------------------------------|-------
g---------------------------------------------|-------
D---------------------------------------------|-1010--
A-5555555555555555-99999999-1010101010101010--|-1010--
D-5555555555555555-99999999-1010101010101010--|-1010--
  ................                            

Play Chorus again

That one is finished. Please rate this tab and leave a comment if you liked or
hated it.

Still Sleepwalking,
Patrick

Comments about this tab

Dani_Boy - 2006-05-19

Looks pretty good! And yes you did beat me to it! :) I haven't checked through it all yet, however you did mess up the rhythm in the intro a bit.

G|----------------------------------|
D|-5-555-----------2-222-2----------|
A|-5-555---5-0-3-2-2-222-2-5-0-3-2--|
D|-5-555-----------2-222-2----------|

G|-5-555-5---------5-555------------|
D|-5-555-5---------5-555------------|
A|-3-333-3-5-0-3-2-3-333-5-3-2-0-2--|
D|----------------------------------|

End with:
G|-----|
D|--5--|
A|--5--|
D|--5--|

It looks like a really good tab, but as I said, I haven't checked it all yet. Good job on beating me to the song lol


Add a comment/correction

Complimentary Christian Ringtones
Dadamobile and CGR have teamed up to bring your favorite Christian artists right to your phone. Sign up today and get 10 complementary ringtones!
Tab Country
Did you know CGR has a sister site w/ country guitar tabs? Well we do! Its called Tab Country. It has a great archive with a lot of country tabs.
Rockin Tabs
Are you looking for a site that has rock guitar tabs? Then Rockintabs.com is the place for you. It is a budding site with many rock guitar tabs. Submit your tab today.
Tab Gallery
Tab Gallery has a compilation of christian, rock, and country tabs all in one place. Come visit us.