Guitar Tabs
song title    band name

Join Us Today!

Don't strum alone...
be a part of the largest online Christian music community. Browse thousands of guitar tabs and chat w/ musicians like yourself.


It's Free!

This tab has been rated a 4.00 out of 5 for accuracy. (2 votes)Sorry, but you must be logged in to rate this tab.
Click here to log-in, or you can click here to register.
(Registration is free)

All songs owned by corresponding publishing company. If you make copies of any song on this website, be sure to report your usage to CCLI.
Submitted by: tl_guitarnut

Artist: Hawk Nelson
Song: Itís Over
Cd: Smile, itís the end of the World
Tuning: drop c#

h= hammer on
s=slide


Awsome song to listen to, and play.

Intro:
D# | -------------------------------------|
A# | -------------------------------------|
F# | -5-7-9h10-9-----9h10-9s7-------------|
C# | -------------------------------------| 8x
G# | -------------------------------------|
C# | -------------------------------------|


Verse:
D# | ------------------------------|
A# | ------------------------------|
F# | -5----------------------------|
C# | -5-----3-----7-----5----------| 2x first time is palm muted
G# | -3-----3-----7-----5----------|
C# | -------3-----7-----5----------|


Pre-Chorus:
D# | ------------------------|
A# | ------------------------|
F# | ------------------------|
C# | -3-----5----------------|
G# | -3-----5----------------|
C# | -3-----5----------------|


Chorus:
D# | --------------------------------| 
A# | --------------------------------|
F# | -5------------------------------|
C# | -5-----3-----7-----5------------| 2x
G# | -3-----3-----7-----5------------|
C# | -------3-----7-----5------------|
On the second time the lead guitar plays the intro.


Verse 2: bass plays it once, then on the second time the bass plays it the 
guitar plays this
D# | ------------------|
A# | ------------------|
F# | ------------------|
C# | -7-9h10-----------|
G# | ------------------|
C# | ------------------| 
after playing the 7, go back and play it again, only this time 
palm mute it so it creates a scratching sound, do the same for the 9.


then play the verse 2x

Pre-Chorus

Chorus 2x: again, lead plays intro on the second time

Then after the chorus, play the beginning of verse 2 riff 8 times 
(I think it might be on two strings instead of 1 this time).

Then bass comes in

Then play the into twice

Bridge:
D# | -------------------|
A# | -------------------|
F# | -5-----------------|
C# | -5-----3-----------|4x
G# | -3-----3-----------|
C# | -------3-----------| 
Lead guitar plays intro to this too.


Bridge 2
D# | ---------------------|
A# | ---------------------|
F# | ---------------------|
C# | -3-----5-------------|2x
G# | -3-----5-------------|
C# | -3-----5-------------|

Ends on piano




Well, thatís about it, I hope you understood all my babbling on what to do, I donít know the
 riffs on the second part of verse two or at bridge 2. Hope you enjoy and please rate!

God Bless,
tl_guitarnut

Comments about this tab

5isakoolnumber - 2007-04-10

nice tab but next time just shut up! jk
God bless


Te eF Kay - 2007-05-25

looks promising!


Add a comment/correction

Complimentary Christian Ringtones
Dadamobile and CGR have teamed up to bring your favorite Christian artists right to your phone. Sign up today and get 10 complementary ringtones!
Tab Country
Did you know CGR has a sister site w/ country guitar tabs? Well we do! Its called Tab Country. It has a great archive with a lot of country tabs.
Rockin Tabs
Are you looking for a site that has rock guitar tabs? Then Rockintabs.com is the place for you. It is a budding site with many rock guitar tabs. Submit your tab today.
Tab Gallery
Tab Gallery has a compilation of christian, rock, and country tabs all in one place. Come visit us.