Guitar Tabs
song title    band name

Join Us Today!

Don't strum alone...
be a part of the largest online Christian music community. Browse thousands of guitar tabs and chat w/ musicians like yourself.


It's Free!

This tab has been rated a 4.80 out of 5 for accuracy. (5 votes)Sorry, but you must be logged in to rate this tab.
Click here to log-in, or you can click here to register.
(Registration is free)

All songs owned by corresponding publishing company. If you make copies of any song on this website, be sure to report your usage to CCLI.
Submitted by: Dani_Boy

Artist: Thousand Foot Krutch
Song: Unbelievable
Album: Set It Off (The first album)
Tuning: Standard (Could be Drop D, but it's easier in standard I think)

Here comes a really good and easy song. It's a main riff, a verse riff, and a
chorus riff for the Rhythm Guitar, then it's a little Lead part in the second
verse. There are a few variations between each main riff, but overall it's the
same. This is a unbelievable song and I hope my tab will be unbelievable too.
Here we go!

/ = Slide up
\ = Slide down
* = Natural Harmonics
= = Means connecting different chords with slides (Duration)
x = Scratching, Heavy muting by fret hand


  Intro: Rhythm Guitar (Clean hollow sound)
G|----------4--4--5-5=/6-6-------------------4-44-5-6--|
D|--6---6---4--4--5-5=/6-6--9--9--7-7=\6-6---4-44-5-6--|
A|--6---6---2--2--3-3=/4-4--9--9--7-7=\6-6---2-22-3-4--|
E|--4---4-------------------7--7--5-5=\4-4-------------|


  Intro: Rhythm Guitar (Distortion from here on)
G|----------4--4--5-5=/6-6------------------4--4--5-6--|
D|--6---6---4--4--5-5=/6-6--9--997-7=\6-6---4--4--5-6--|
A|--6---6---2--2--3-3=/4-4--9--997-7=\6-6---2--2--3-4--|
E|--4---4-------------------7--775-5=\4-4--------------|


  Verse: Rhythm Guitar
G|----------------6-----666-888---|
D|--6-----------666-----666-888-9-|
A|--6-----------664-----444-666-9-|x6
E|--4-----------44--------------7-|

Last time, skip final chord.


  Chorus 1: Rhythm Guitar "The things..."
G|----------------------6--6--6-6-8-8----------------------6--|
D|--xxx-6-6------6-6----6--6--6-6-8-8------6-6------6-6----6--|
A|--xxx-6-6------6-6----4--4--4-4-6-6------6-6------6-6----4--|
E|--xxx-4-4-*444-4-4-*4---------------*444-4-4-*444-4-4-*4----|


  Main Riff 1:
G|----------4--4--5-5=/6-6-------------------4-44-5-6--|
D|--6---6---4--4--5-5=/6-6--9--9-97-7=\6-6---4-44-5-6--|
A|--6---6---2--2--3-3=/4-4--9--9-97-7=\6-6---2-22-3-4--|
E|--4---4-------------------7--7-75-5=\4-4-------------|

G|----------4--4--5-5=/6-6-------------------4-44-5-6--|
D|--6---6---4--4--5-5=/6-6--9--9-97-7=\6-6---4-44-5-6--|
A|--6---6---2--2--3-3=/4-4--9--9-97-7=\6-6---2-22-3-4--|
E|--4---4-------------------7--7-75-5=\4-4-------------|


Verse 2 (Same as verse 1 for Rhythm Guitar)


  Verse 2: Lead Guitar (Hollow cool sound)
G|----------------------------------------------------------------------|
D|----------------------------------------------------------------------|
A|--------------2-2-3-4-4-44444-6-6---------------2-2-3-4--4--4-4-6-6---|
E|--4-4-44-2h4-4--------------------7-4-4-xx-2h4-x--------------------7-|

G|----------------------------------------------------------------------|
D|----------------------------------------------------------------------|
A|--------------2-2-3-4--4--4-4-6-6---------------2-2-3-4-4-44444-6-6---|
E|--4-4-44-2h4-x--------------------7-4-4-44-2h4-x----------------------|


  Chorus 2: Rhythm Guitar
G|------------------6--6-66-6-8-8-------------------5-6--|
D|--6-6------6-6----6--6-66-6-8-8-xx---6-6------6-6-5-6--|
A|--6-6------6-6----4--4-44-4-6-6-xx---6-6------6-6-3-4--|
E|--4-4-*444-4-4-*4---------------xx*4-4-4-*444-4-4------|


  Main Riff 2:
G|----------4-44--5-5=/6-6-------------------4-44-5----|
D|--6---6---4-44--5-5=/6-6--9--9--7-7=\6-6---4-44-5----|
A|--6---6---2-22--3-3=/4-4--9--9--7-7=\6-6---2-22-3----|
E|--4---4-------------------7--7--5-5=\4-4-------------|

G|----------4--4--5-5=/6-6-------------------4-44-5-6--|
D|--6---6---4--4--5-5=/6-6--9--9-97-7=\6-6---4-44-5-6--|
A|--6---6---2--2--3-3=/4-4--9--9-97-7=\6-6---2-22-3-4--|
E|--4---4-------------------7--7-75-5=\4-4-------------|


No Guitar in Verse 3


  Chorus 3: Rhythm Guitar
G|------------------6--6-66-6-8-8------------------5-6--|
D|--6-6------6-6----6--6-66-6-8-8-xxx-6-6------6-6-5-6--|
A|--6-6------6-6----4--4-44-4-6-6-xxx-6-6------6-6-3-4--|
E|--4-4-*444-4-4-*4---------------xxx-4-4-*444-4-4------|

  Main Riff 3:
G|----------4--4--5-5=/6-6-------------------4-44-5----|
D|--6---6---4--4--5-5=/6-6--9--9-97-7=\6-6---4-44-5----|
A|--6---6---2--2--3-3=/4-4--9--9-97-7=\6-6---2-22-3----|
E|--4---4-------------------7--7-75-5=\4-4-------------|

G|----------4--4--5-5=/6-6-------------------4-44-5-6--|
D|--6-------4--4--5-5=/6-6--9--9-97-7=\6-6---4-44-5-6--|
A|--6-------2--2--3-3=/4-4--9--9-97-7=\6-6---2-22-3-4--|
E|--4-----------------------7--7-75-5=\4-4-------------|

God is unbelievable, isn't he? Hope this tab can bring you some joy and some
skill, but think about the lyrics of this song. God is unbelievable, that is
why we believe. TFK ROCKS!!!
God Bless,
Daniel

Comments about this tab

tl_guitarnut - 2006-05-13

Awsome tab, sounds good to me, keep rockin for God!


Dani_Boy - 2006-05-13

I will. Thanks :)


akaukal - 2006-05-13

good job! almost all the other ones didn't make sense, but this one does


tl_guitarnut - 2006-05-13

I was just wondering who the lead guitarist for TFK was. I thout I saw that his name was Jamie Amplin, but I'm not for sure.


akaukal - 2006-05-14

man this song sounds way better on the original set it off. the reissued version doesn't have the same crunch to it!


tl_guitarnut - 2006-05-14

I wish I had the original, so that I could compare


Te eF Kay - 2006-05-14

hey tl_guitarnut if u see one of their videos the guy with the mohawk is jamie
but im not sure if its him or trevor is the lead guitarist.
awsome tab by the way in the rerelease the rythym guitar does scratchings while the lead takes the harmonics I think and I love the lead in the @nd verse!GREAT JOB!


Te eF Kay - 2006-05-14

I mean 2nd verse.hehehe!


Dani_Boy - 2006-05-15

Thanks for the input. Now I really want the re-issue so that I can compare also. Hehe


ice_wiz - 2006-05-15

Jamie is the guitarist and I don't think Trev' does the guitars anymore. If you go to youtube.com and search them up live only Jamie does the guitar work.


akaukal - 2006-05-15

Trev only does guitar on the albums, not in live performances. It says on all the liner notes of their albums. Don't know what they would do during live performance with only 1 guitar though...


Dani_Boy - 2006-05-15

Right, I think they might use some extra guitarist for the concerst or something that's not actually in the band. Just a thought, because I've also been wondering what they do about the Lead Guitar when Trevor only seems to be singing.


akaukal - 2006-05-15

I think trevor might actually play when they do live shows. The Rhythm guitar in all of TFK's songs is pretty easy to play while singing. I guess I'll find out June 17.hehehe


Te eF Kay - 2006-05-16

maybe they pick a volunteer out of the audience to play the lead so be prepared akaukal!hehehe!


tl_guitarnut - 2006-05-16

Man, I wish I coulld go with you!!!!


Dani_Boy - 2006-05-16

Very funny, Te eF Kay!!! Pick a member in the audience to play the Lead, haha...

I so wish I could go with you too.


ice_wiz - 2006-05-18

tj_guitarnnut-- I'll actually get to be at the same concert.


akaukal - 2006-05-19

YEAH!! June 17 CAN'T WAIT!!!!!!!!!!!!!


Dani_Boy - 2006-05-19

Lucky you... ;)


akaukal - 2006-05-21

I heard that the only songs they do off Set It Off are The Krutch Anthem and Puppet. I hope that isn't true...


tl_guitarnut - 2006-05-22

That would be bad if it is, it's a great record


Dani_Boy - 2006-05-23

heh, yeah. I think all their albums blows all their other albums away. There are songs that make Set It Off awesome, there are songs that make Phenomenon awesome and there are songs that make The Art of Breaking awesome. You can't really separate one from the other.


ice_wiz - 2006-05-23

They will probably do songs from all the albums. Though, it will not be a full concert :( of just TFK. So we'll hafta put up with Mercy Me and Jeremy Camp. Pillar and Kutless are gonna be there too but they RAWK!


Dani_Boy - 2006-05-24

Sounds like a fun mix anyway. TFK, Pillar and Kutless totally ROCK, and Mercy Me and Jeremy Camp are kinda neat too, even though they don't "rawk" at all. Wish I could be there with you guys.


akaukal - 2006-05-25

Yeah, i wish you could be there too. I'll have to look for ice_wiz. I have no idea what he looks like.


ice_wiz - 2006-05-25

This is what I look like...
Hair: Brown Medium Length
Eyes: Blue
Height: 6'1/2
Age: 14 (though, being as tall as I am, for my age I look more like 15-16)
I'm not "large" if you know what I mean ;).


tl_guitarnut - 2006-05-25

Make sure to keep us posted on whether or not you meet each other


akaukal - 2006-05-26

Okay, ice_wiz I look like this
Hair:Dirty Blonde, medium length
Height:5'8
Eyes:Blueish gray
Age:14
Here is what I will wear
Shirt:White Polo with navy shirt underneath
Shorts:tan coloured

I'll be with a group of people, including a giant guy who's about 6'6. We're going to go to the ampitheater early at around 10:00 am and we're going to save the front seats. So you know where we'll be.


ice_wiz - 2006-05-27

Oh ya, For what I'll wear it'll probably be, some Jeans and a T-Shirt. I'm a simple man :).


Dani_Boy - 2006-06-03

Have fun, guys! Hope you find each other!


ice_wiz - 2006-06-19

Well, I went and it was awesome!! I don't think I saw akaukal, though. Unless he was that guy that looked at me strangely when I walked by.


Te eF Kay - 2006-06-23

did they sound just as good as on the cds?


Dani_Boy - 2006-06-25

Cool, what songs did they do? Did they do all the soloing? Did you see anything cool that the guitarists did? Just tell us more please... ;)


ice_wiz - 2006-06-25

Okay, here are the songs they did(in no particular order)...

Art of Breaking
Hurt
Phenomenon
Bounce
Puppet
Rawkfist
Move
Stranger-they didn't do the actual solo on the cd, they did some weird variation
Absolute
This Is A Call
Breathe You In
Step To Me

So that's what they did. I wasn't near the guitarist, though, I was near Joel. From what I saw of Jamie, Dani_boy your tabs are really good. I saw quite a bit of Bounce and I saw really no difference on your tab. One thing I did pick up was the intro to Hurt it goes like this...
G|13
D|11
A|9
D|x

They only used one guitarist too.


ice_wiz - 2006-06-25

Oh ya, and for SHARK(TFK), they sounded exactly the same on the CD, except for the guitars.:P


ice_wiz - 2006-06-26

*I forgot one song, they sang Faith Love and Happiness. I picked something up too... instead of
Intro: Rhythm Guitar (Distortion through entire song)
G|------------87-3--------8-8----8-8--------------87-3-----------8-----8--|
D|--5-87-3-1--xx-x-5587-3xx-x---xx-x---x5-87-3-1--xx-x-5587-3-1-1x---11x--|
A|--5-87-3-1--65-1-5587-3x6-6---x6-6---x5-87-3-1--65-1-5587-3-1-16---116--|
D|--5-87-3-1-------5587-3x------x------x5-87-3-1-------5587-3-1-1----11---|
P.M.
Go
Intro: Rhythm Guitar (Distortion through entire song)
G|------------78-----------8-8----8-8--------------78------------8------8--|
D|--5-87-3-1--xx-8--5587-3xx-x---xx-x---x5-87-3-1--xx-8-5587-3-1-1x---11x--|
A|--5-87-3-1--56-8--5587-3x6-6---x6-6---x5-87-3-1--56-8-5587-3-1-16---116--|
D|--5-87-3-1-----8--5587-3x------x------x5-87-3-1-----8--5587-3-1-1----11--|
P.M. ^^^ . . ..
. . ..


ice_wiz - 2006-06-26

Crap, it didn't work.


tl_guitarnut - 2006-06-27

sweet man, I copied and pasted it onto wordpad and it sounded great, one question though, did you rock out at the concert, I know I would have. probably a dumb question huh, but who cares.


ice_wiz - 2006-06-30

Yup, I was moshing. People were crowd surfing, and going nuts. It was really hot that day and everyone stank really bad, but no one cared. I went with my sister and my cousin, and well, they're not nearly as big as me even though we're the same age. So, when some guy came crowding surfing near us, they thought they were dead, so I just pushed away and he kept coming back, so I was pushing him all by myself for quite a bit. A couple more things, Dani_boy-- element1's intro is EXACTLY how he played it. On the bridge for "Bounce" where they do all that plucking, he doesn't move all around the neck like you have it.


tl_guitarnut - 2006-07-02

Awsome news, I just got done going to a TFK concert, it was great (My ears are still ringing). and I was right by Jamie and your tabs are great!. One thing I saw, the intro to absolute was a little different, it looked like it started on the fifth fret on the D or G string and went in went in two fret intervals up and down the fretboard, other than that your tabs were awsome!!! And yes, I did mosh a little, hehehehe.


Te eF Kay - 2006-07-10

who wouldnt mosh?!hehehe


ice_wiz - 2006-07-11

Just to let you know, I may be seeing TFK again. There is just about every Christian band you can imagine there. The concert is held for a few days, bands that will be there are...
TFK (duh)
Pillar
Kutless
Kids In the Way
Hawk Nelson (:P)
Dizmas
Falling Up
Audio A
Disciple
Casting Crowns
Jonah33
Flyleaf
MercyMe
Newsboys
Third Day
Day of Fire
Skillet
Spoken
The Afters
The Silent
The Wedding
7th Day Slumber
Sanctus Real
Jonh Rueben

The rest are nobodys.


ice_wiz - 2006-07-12

Okay, scratch that, TFK won't be there. Neither will almost all of those good bands.

On another note, I found a Puppet music video, it actually is a them too. Go tohttp://youtube.com/watch?v=WWBswsQlmoA&search=thousand%20foot%20krutch


tl_guitarnut - 2006-07-27

Sweet I'll have to check that out, my computer is too slow right now. Sorry about the concert :(


Add a comment/correction

Complimentary Christian Ringtones
Dadamobile and CGR have teamed up to bring your favorite Christian artists right to your phone. Sign up today and get 10 complementary ringtones!
Tab Country
Did you know CGR has a sister site w/ country guitar tabs? Well we do! Its called Tab Country. It has a great archive with a lot of country tabs.
Rockin Tabs
Are you looking for a site that has rock guitar tabs? Then Rockintabs.com is the place for you. It is a budding site with many rock guitar tabs. Submit your tab today.
Tab Gallery
Tab Gallery has a compilation of christian, rock, and country tabs all in one place. Come visit us.