Guitar Tabs
song title    band name

Join Us Today!

Don't strum alone...
be a part of the largest online Christian music community. Browse thousands of guitar tabs and chat w/ musicians like yourself.


It's Free!

This tab has been rated a 5.00 out of 5 for accuracy. (11 votes)Sorry, but you must be logged in to rate this tab.
Click here to log-in, or you can click here to register.
(Registration is free)

All songs owned by corresponding publishing company. If you make copies of any song on this website, be sure to report your usage to CCLI.
Submitted by: miky-kim070

Your Touch: Kutless
tabbed by miky-kim070
awesome song by kutless
            Intro: x3
|-----------------------------------------------------------------|
|-----------------------------------------------------------------|
|-------------------------------------12--------------------------|
|----5-8-5----------8-10-8---------10----12----------8-10-8-------|
|--5-------5------8-------------10---------10------8--------------|
|5-----------5--8------------10------------------8----------------|     

            Verse1 x1
|---------------------------------------------------|
|---------------------------------------------------|
|---------------------------------------------------|
|1-3-5---8-7----1-3--10--10--1010--10-1010-10-------|
|1-3-5----------1-3--10--10--1010--10-1010-10-------|
|1-3-5----------1-3--10--10--1010--10-1010-10-------|


        Chorus x2
|------------------------------------------------|
|------------------------------------------------|
|------------------------------------------------|
|5-555-58-88-8-8-8-3-333-3-3-3-3-xx1---------|
|5-555-58-88-8-8-8--3-333-3-3-3-3--xx1---------|
|5-555-58-88-8-8-8--3-333-3-3-3-3--xx1---------|  


           Verse2 x3
|-----------------------------------|
|-----------------------------------|
|------------------12-------10------|
|5-8-5-8-10-8--10----12--8----10---|
|5------8-------10--------8---------|
|5------8-------10--------8---------| 

           Verse1 x1
|--------------------------------------------|
|--------------------------------------------|
|--------------------------------------------|
|1-3-58-7---1-3--10--10--1010-10--1010-10---|
|1-3-5-------1-3--10--10--1010-10--1010-10---|
|1-3-5-------1-3--10--10--1010-10--1010-10---|    


        Chorus x2
|-------------------------------------------|
|-------------------------------------------|
|-------------------------------------------|
|5-555-58-88-8-8-8---3-333-3-3-3-3--xx1----|
|5-555-58-88-8-8-8---3-333-3-3-3-3--xx1----|
|5-555-58-88-8-8-8--3-333-3-3-3-3--xx1----|    

        

Bridge1
|---------------------------------------|
|---------------------------------------|
|-----------------5---------------------|
|5-----8------3----5--5-----8------3---|
|5------8------3-------5-----8------3---|
|5------8------3-------5-----8------3---|    
       Bridge2
|---------------------------------------------------------------|
|---------------------------------------------------------------|
|---------------------------------------------------------------|
|----BASS-PART---------------BASS-PART--------------BASS-PART---|
|-[5-5-5-3-5-8-]3----------[5-8-10-8]---3---------[5-5-5-3---8]|
|0-----------------5-3-5-0-----------------5-3-5-0--------------|

|----------------------------------|
|----------------------------------|
|----------------------------------|
|------------BASS-PART-------------|
|-3---------[5---10-12]------------|
|---5-3-5-0------------------------|

           Bridge3
this part x4                  D hold this chord   D
|--------------------------| |-|and get a lot    |x|
|--------------------------| |-|feedback and then|x|
|-PALM-MUTED---------------| |-|jump to..........|7|
|0-00-000-0-0-0----------0-| |0|                 |7|
|0-00-000-0-0-0-3-------0-| |0|                 |5|
|0-00-000-0-0-0----5-3-5-0-| |0|                 |x|


     Bridge4 x15
|--------------------|
|--------------------|
|--------------------|
|0-3/5-05-5/3-----|
|0-3/5-0-5-5/3-----|
|0-3/5-05-5/3-----|
it's hard to get the beat down but if you get the rhythm right, i promise you it 
will sound 100% correct except you can skip the first 555 chord if you think that's
right, im not perfect

  Chorusx6
|----------------------------------------|
|----------------------------------------|
|----------------------------------------|
|5-555--5-8-88-8-8-83-333-3-3-3-3--xx1--|
|5-555--5-8-88-8-8-83-333-3-3-3-3--xx1--|
|5-555--5-8-88-8-8-83-333-3-3-3-3--xx1--|
end on g (555)

Comments about this tab

miky-kim070 - 2006-05-27

please leave comments, i tabbed dare u to move by switchfoot and it got rated 5.0 but nobody commented on that either except me for one modification that left. please comment cuz i wrote this tab (and on dare u to move) if u kno that song


Techguitarman - 2006-06-02

awesome tab, everything sounds really cool thanks for tabbin it
-PB


JesusmyKing - 2006-06-07

This is drop tuned D right. I'm assuming this because of the chords, exp. 555,888,ect.


JesusmyKing - 2006-06-07

Sounds great!!!!! I rated a 5 for you man
God Bless
Brandon


miky-kim070 - 2006-06-10

whoopsi!!! i made a mistake.
the intro is
|-----------------------------------------------------------------|
|-----------------------------------------------------------------|
|-------------------------------------12---------------10---------|
|----5-8-5----------8-10-8---------10----12----------8----10------|
|--5-------5------8-------------10---------10------8--------------|
|5-----------5--8------------10------------------8----------------|


|)rink)v(tn|)ew - 2006-06-30

dawg, this sounds perfect...allexcept one teeny tiny thing...
on the second verse.. its different...watch
something like this...just listen and compare
|-----------------------------------|
|-----------------------------------|
|------------------12-------10------|
|5-----8-10-8--10----12--8----10---|
|5-8-5--8-------10--------8---------|
|5------8-------10--------8---------|

very small, but now its surely 100%!
but If i could give you a ten i would


Add a comment/correction

Complimentary Christian Ringtones
Dadamobile and CGR have teamed up to bring your favorite Christian artists right to your phone. Sign up today and get 10 complementary ringtones!
Tab Country
Did you know CGR has a sister site w/ country guitar tabs? Well we do! Its called Tab Country. It has a great archive with a lot of country tabs.
Rockin Tabs
Are you looking for a site that has rock guitar tabs? Then Rockintabs.com is the place for you. It is a budding site with many rock guitar tabs. Submit your tab today.
Tab Gallery
Tab Gallery has a compilation of christian, rock, and country tabs all in one place. Come visit us.