Guitar Tabs
song title    band name

Join Us Today!

Don't strum alone...
be a part of the largest online Christian music community. Browse thousands of guitar tabs and chat w/ musicians like yourself.


It's Free!

This tab has not yet been rated for accuracy.Sorry, but you must be logged in to rate this tab.
Click here to log-in, or you can click here to register.
(Registration is free)

All songs owned by corresponding publishing company. If you make copies of any song on this website, be sure to report your usage to CCLI.
Submitted by: cheese boy

standard tuning
hey guys i love this song an wated 2 share it so thanks
INTRO(first guitar)
e-------------------------------------------------------------                                                           
b-------------------------------------------------------------                                                              
g------6-8-6-8-6--6-5-6-5-6--8-10-8-10-8-----10-13-10-11-10---                                                     
d--8-8----------6----------8-------------11-------------------                                 
a-------------------------------------------------------------                                                                     
E------------------------------------------------------------- 
second guitar plays nothing durring this time
then first guitar plays 2 times 
e-------------------------------------------------------------                                                             
b-------------------------------------------------------------                                                             
g---6-8-6-8-6---6-5-6-5-6---8-10-8-10-8---10-13-10-11-10------                                                                  
d-------------------------------------------------------------
a-------------------------------------------------------------                                                                                                                         
E-------------------------------------------------------------
INTRO (second guitar)plays w/fist in 2nd section of intro(listin for timing)

e-------------------------------------------------------
b-------------------------------------------------------
g------6-----8----------  THEN PLAY  ------6-----8------
d------4-----6-----------------------------4-----6------       
a8-----------------------------------6-----------------4                            
E6-----------------------------------8-----------------2                        
VERSE (1 and 2 guitars)play twice)
e-------------------------------------------------------------------------
b-------------------------------------------------------------------------
g-------------------------------------------------------------------------
d--6-6-6-6-6-6-6-6--------------------------------------------------------
a--4-4-4-4-4-4-4-4---6-6-6-6-6-6-6-6---4-4-4-4-4-4-4-4---8-8-8-8-8-8-8-8-8
E--------------------4-4-4-4-4-4-4-4---2-2-2-2-2-2-2-2---6-6-6-6-6-6-6-6-6
INTERLUDE
e------4-----
b---6----6666
g----6------- REPEAT 4 TIMES then p.m. 4 times 
d------------
a-4----------
E------------

play twice 
e------------------------------------------------------------------------
b------------------------------------------------------------------------
g--------------------------------------------10--------------------------
d--------------------------------------------8 X16-----------------------
a10-10-10-10-10-10-10-10----8-8-8-8-8-8-8-8------------------------------
E8--8--8--8--8--8--8--8-----6-6-6-6-6-6-6-6------------------------------
on 2 time play
e-----------------------------
b-----------------------------
g----------16-----------------
d----------8 X8---------------
a-10----8--------4------------
E-8 X8--6X8------2X8----------
PRE CHOURS
e------------
b------------
g------------PLAY TWICE
d------------
a-6---6---4--
E-4X8-3X8-2X8
CHOURS
e----
b---6----6---6---6
g---6----6---6---6
d--------------4--play twice 
a-4---------------
E-----4----6------
then after play P.M...........................
e------------------------------------
b------------------------------------
g------------------------------------
d-66666666---------------------------PLAy  2 TIMES
a-44444444-66666666-88888888-44444444
E----------44444444-66666666-22222222


HEY HOPE U GUYS ENJOY THIS TAB






                                                                                 

Comments about this tab

No comments/corrections found. Add your own

Complimentary Christian Ringtones
Dadamobile and CGR have teamed up to bring your favorite Christian artists right to your phone. Sign up today and get 10 complementary ringtones!
Tab Country
Did you know CGR has a sister site w/ country guitar tabs? Well we do! Its called Tab Country. It has a great archive with a lot of country tabs.
Rockin Tabs
Are you looking for a site that has rock guitar tabs? Then Rockintabs.com is the place for you. It is a budding site with many rock guitar tabs. Submit your tab today.
Tab Gallery
Tab Gallery has a compilation of christian, rock, and country tabs all in one place. Come visit us.