Guitar Tabs
song title    band name

Join Us Today!

Don't strum alone...
be a part of the largest online Christian music community. Browse thousands of guitar tabs and chat w/ musicians like yourself.


It's Free!

This tab has not yet been rated for accuracy.Sorry, but you must be logged in to rate this tab.
Click here to log-in, or you can click here to register.
(Registration is free)

All songs owned by corresponding publishing company. If you make copies of any song on this website, be sure to report your usage to CCLI.
Submitted by: jhalme

Artist: Newsong
Track: Psalm 40

This is the intro and the little riff you hear in
the verse. I have no idea about the chords :)
Tabbed by Josiah Halme jhalme@gmail.com

intro
e------8-8----3-3-3-3h4-4-4------------------------------------------
B----s9-9-9----4-4-----4-4---4-4-4-----------------------------------
G----------------------------5-5-------------------------------------
D--------------------------------------------------------------------
A--------------------------------------------------------------------
E--------------------------------------------------------------------
I had the first two notes fingered with my first and 2nd finger,
then slide the whole thing down to the 3rd and 4th fret,
makes that nice sliding tone which you hear more later in the song.

verse riff
e--------------------------------------------------------------------
B--------------------------------------------------------------------
G------------------6p5~~---------------------------------------------
D--4h6-6-4-6-4(?)----------------------------------------------------
A--------------------------------------------------------------------
E--------------------------------------------------------------------

Feel free to use this tab if you have the rest of the music,
just chuck credit where its due.

Comments about this tab

No comments/corrections found. Add your own

Complimentary Christian Ringtones
Dadamobile and CGR have teamed up to bring your favorite Christian artists right to your phone. Sign up today and get 10 complementary ringtones!
Tab Country
Did you know CGR has a sister site w/ country guitar tabs? Well we do! Its called Tab Country. It has a great archive with a lot of country tabs.
Rockin Tabs
Are you looking for a site that has rock guitar tabs? Then Rockintabs.com is the place for you. It is a budding site with many rock guitar tabs. Submit your tab today.
Tab Gallery
Tab Gallery has a compilation of christian, rock, and country tabs all in one place. Come visit us.