Guitar Tabs
song title    band name

Join Us Today!

Don't strum alone...
be a part of the largest online Christian music community. Browse thousands of guitar tabs and chat w/ musicians like yourself.


It's Free!

This tab has been rated a 3.67 out of 5 for accuracy. (3 votes)Sorry, but you must be logged in to rate this tab.
Click here to log-in, or you can click here to register.
(Registration is free)

All songs owned by corresponding publishing company. If you make copies of any song on this website, be sure to report your usage to CCLI.
Submitted by: bigrockj26

This is an amazing song from Building 429's new cd "Rise". I dont have the 
whole song, hopefully someone else can figure out the stuff i dont have.

Drop D Tuning

Intro/chorus
e:-----------------------------------------------------------------------------
B:-----------------------------------------------------------------------------
G:--xxxx-6/7-77-6/7-77-6/7-77-141414--6/7-77-6/7-77-6/7-77-121211--------------
D:--xxxx-xxx-xx-xxx-xx-xxx-xx-xxxxxx--xxx-xx-xxx-xx-xxx-xx-xxxxxx--------------
A:--xxxx-4/5-55-4/5-55-4/5-55-121212--4/5-55-4/5-55-4/5-55-1010-9--------------
D:-----------------------------------------------------------------------------

e:-----------------------------------------------------------------------------
B:-----------------------------------------------------------------------------
G:--xxxx-6/7-77-6/7-77-6/7-77-141414--6/7-77-6/7-77-xx-4-----------------------
D:--xxxx-xxx-xx-xxx-xx-xxx-xx-xxxxxx--xxx-xx-xxx-xx-xx-x-----------------------
A:--xxxx-4/5-55-4/5-55-4/5-55-121212--4/5-55-4/5-55-xx-2-----------------------
D:-----------------------------------------------------------------------------

This part comes in right after the bridge, i cant figure out the chords used
during the bridge.

e:-----------------------------------------------------------------------------
B:-----------------------------------------------------------------------------
G:-----------------------------------------------------------------------------
D:---77-4h5h4-77-4h5h4-777777-999999-11-11-11-11-11-11-------------------------
A:---77-4h5h4-77-4h5h4-777777-999999-11-11-11-11-11-11-------------------------
D:---77-4h5h4-77-4h5h4-777777-999999-11-11-11-11-11-11-------------------------

Thats all i've figured out so far, like i said hopefully someone else can 
figure out the whole song.

Comments about this tab

3rddayinmyear - 2006-05-25

i've been waiting for this song for a long time thanks so much!


buildin429wanna - 2006-06-10

awsome c.d. must have for any building 429 fans. great tab


bsmith - 2006-06-22

can someone help me i dont know what drop d tunning is


trmcello24 - 2006-06-22

hey bsmith! you do drop d tuning like this, first you want to get yourself a tuner, and play your lowest string and it should say on the tuner that you are playing a E, and then you want to tune that down to a D so that you have a D powerchord went you strum the three lowest strings. its really simple when you get the hang of it. God bless


Ablaze2822 - 2006-07-02

Sorry Buddy you got ur octave chords wrong. It goes like this:

E----------------------------------------
B----------------------------------------
G----5/6-6666-5/6-6666-5/6-6666/131313--- Then You
D----XXX-XXXX-XXX-XXXX-XXX-XXXXXXXXXXX--- Play This
A----3/4-4444-3/4-4444-3/4-4444/111111---
D----------------------------------------

E----------------------------------------
B----------------------------------------
G----5/6-6666-5/6-6666-5/6-6666/111110---
D----XXX-XXXX-XXX-XXXX-XXX-XXXXXXXXXXX---
A----3/4-4444-3/4-4444-3/4-4444/9 9 8----
D----------------------------------------


Ablaze2822 - 2006-07-02

My Bad, I forgot the rest which goes like this:

E--------------------------------------
B--------------------------------------
G----5/6-6666-5/6-6666-5/6-6666/131313-
D----XXX-XXXX-XXX-XXXX-XXX-XXXXXXXXXXX-
A----3/4-4444-3/4-4444-3/4-4444/111111-
D--------------------------------------

E--------------------------------
B----5/6-6666-5/6-6666-5/6-6666/3
G----XXX-XXXX-XXX-XXXX-XXX-XXXXXX
D----3/4-4444-3/4-4444-3/4-4444/1
A--------------------------------
D--------------------------------


3rddayinmyear - 2006-11-06

i emailed jason roy(the lead singer) and he says the guitars are always tuned a half step down...so it should be drop C#.


Add a comment/correction

Complimentary Christian Ringtones
Dadamobile and CGR have teamed up to bring your favorite Christian artists right to your phone. Sign up today and get 10 complementary ringtones!
Tab Country
Did you know CGR has a sister site w/ country guitar tabs? Well we do! Its called Tab Country. It has a great archive with a lot of country tabs.
Rockin Tabs
Are you looking for a site that has rock guitar tabs? Then Rockintabs.com is the place for you. It is a budding site with many rock guitar tabs. Submit your tab today.
Tab Gallery
Tab Gallery has a compilation of christian, rock, and country tabs all in one place. Come visit us.