Guitar Tabs
song title    band name

Join Us Today!

Don't strum alone...
be a part of the largest online Christian music community. Browse thousands of guitar tabs and chat w/ musicians like yourself.


It's Free!

This tab has been rated a 4.70 out of 5 for accuracy. (10 votes)Sorry, but you must be logged in to rate this tab.
Click here to log-in, or you can click here to register.
(Registration is free)

All songs owned by corresponding publishing company. If you make copies of any song on this website, be sure to report your usage to CCLI.
Submitted by: BlackSaphire909

Hawk Nelson-Bring'Em Out
From "Smile, it's the end of the world"
Copyright Tooth and Nail Records

Okay, I thought I'd tab out this song in standard tuning for those who don't 
like to tune down their guitar. So a big thanks to Adam K for tabbing out 
the original and doing all the hard work, so thanks. you mostly only use
the bottom four strings so don't think I'm writing out a bass tab.
                  _do this part twice_
                 /     riff 1         \
G---4-----4-------4-----4-----4---------------------------------------------
D---4-----4-------4--2--2--5--2--2--4---------------------------------------
A---2-----2-------2--2--2--5--2--2--4---------------------------------------
E--------------------0-----3-----0--2---------------------------------------

Verse 1
       (riff 2)
G------4------4--------]    --6----6--6b--------
D---2--4------4--2--4--]    4---4---------------
A---2--2------2--2--4--]x2  --------------------
E---0------------0--2--]    --------------------

then repeat riff 2 twice

prechorus

G---4--4--4----4--9--4---------
D---2--2--2----2--7--2---------
A---2--2--2----2--7--2---------
E------------------------------


Chorus
G--4-----------4------------
D--2--2--4--2--4--2--4------x2
A--2--2--4--2--2--2--4------
E-----0--2--0-----0--2------

after the drums
G--4---------4---------------
D--2----2----2----5----------
A--2----2----2----5----------
E-------0---------3----------
 P.M......................

Verse 2 is the same as verse 1 then pre chorus
then Chorus

 then the "Shake shake it up" is the same as the chorus

Then the "everybody move" part
G------------------------------------------
D------------------------------------------
A--2--------4--2-----4---------------------
E-----0--2--------0-----2------------------ all palm muted

when it starts to build up make them power chords

Solo
e----------------------------6-7-9---7-7-7-7---9-11h12p11-9-9--9--9--767-9-7--
B---7---7--7---4b\2--7-7-7----------7-7-7-7--7--------------------------------
G--4--4--4---4------4-4-4-4---------------------------------------------------

the key change
G-6-----6-----6-----6---------------6---5-1-6--5-----
D-6--4--6--6--6--4--6--6-6-6-6-6---------------------
A-4--4--4--6--4--4--4--6-6-6-6-6---------------------
E----2-----4-----2-----4-4-4-4-4---------------------

Then do riff one again and that's it enjoy. Thanks again Adam K for doing the 
grunge for me.

Comments about this tab

Hawk_Nelson89 - 2006-05-25

Good Tab, but its not the real way the play it. Its in drop d with a half step down.


BlackSaphire909 - 2006-05-26

I know it's not the real way to play it but lot's of people con't like to tune their guitars down. it is the same notes though that they play just differant tuning


Hawk_Nelson89 - 2006-05-26

Black, how long did it take for your tab to be posted, I created a correct tab for Everything You Ever wanted, and its been atleast a month and it still hasnt been posted.


BlackSaphire909 - 2006-05-27

Hawk, It took at least a month for this to be posted. I was about ready to submit it again!


Hawk_Nelson89 - 2006-05-27

Ok thanks


LemonySnicket - 2006-11-23

I love this song.


Xo PePpEr NoSe - 2006-12-30

yeah its right...it just sounds funny cause its not in tune... -emily-


pattio2 - 2007-03-13

I love tis song thanks for the tab!!!


Jesus_dude - 2007-08-14

wow! this tab is just about perfect!!! the solo, is awesome too, just a tiny bit of tweeking is needed, but ptherwise this is great, just one question, wat is the correct tuning for this song! okay, god bless!


Add a comment/correction

Complimentary Christian Ringtones
Dadamobile and CGR have teamed up to bring your favorite Christian artists right to your phone. Sign up today and get 10 complementary ringtones!
Tab Country
Did you know CGR has a sister site w/ country guitar tabs? Well we do! Its called Tab Country. It has a great archive with a lot of country tabs.
Rockin Tabs
Are you looking for a site that has rock guitar tabs? Then Rockintabs.com is the place for you. It is a budding site with many rock guitar tabs. Submit your tab today.
Tab Gallery
Tab Gallery has a compilation of christian, rock, and country tabs all in one place. Come visit us.