Guitar Tabs
song title    band name

Join Us Today!

Don't strum alone...
be a part of the largest online Christian music community. Browse thousands of guitar tabs and chat w/ musicians like yourself.


It's Free!

This tab has been rated a 5.00 out of 5 for accuracy. (2 votes)Sorry, but you must be logged in to rate this tab.
Click here to log-in, or you can click here to register.
(Registration is free)

All songs owned by corresponding publishing company. If you make copies of any song on this website, be sure to report your usage to CCLI.
Submitted by: Sherox4God

Song: None But Jesus
Album: United We Stand
Artist: Hillsongs United Live 
Written by Brooke Fraser

Tabbed by Sarah Brown

Standard tuning. key of B. intro acoustic, just hold the B a while.

Verse 1:
B  E  C#m  F#
B  E  C#m  F#

(electric comes in here, just sliding around in the key of B with a nice 
ethereal “strings” kind of effect.  This continues until the instrumental; 
let the acoustic carry it; one electric just do some sliding around and the 
other one should pick around and ring out the occasional chord.)

PreChorus: 
C#m   B E F#
C#m   B E F#

Chorus:
G#m
E B F#  C#m
G#m
E B F#  C#m

Verse 2:
B  E  C#m  F#
B  E  C#m  F#

PreChorus

Chorus x2

Instrumental: (build slowly here)
   
   G#m    E       F#      B     G#m    E       F#      B (/A#)G#m
e  ------------------------------------------------------7--9--11--
b  --------------------------------------------------5--7--12---
g  ---8-8-8-9-11-4s6--4s6-8-6-4-----8-8-8-9-11-4s6-4s6-8--9--11----
d  ----------------------------4s6---------------------------------
a  ----------------------------------------------------------------
e  ----------------------------------------------------------------

   G#m    E       F#      B     G#m      E       F#      B  (/A#)   G#m
e  ------------------------------------------------------------------6
b  ------------------------------------------------------12s11-------6
g  ---8-8-8-9-11-4s6--4s6-8-6-4------8-8-8-9-11-4s6-4s6-8----11------6
d  ----------------------------4s6-----------------------------13b14-4
a  ------------------------------------------------------------------4
e  ------------------------------------------------------------------6

(electric come in with full chords here, keeping it mellow though with a 
little delay and some reverb)

Bridge:
G#m  E B F#   C#m  (x4)

Chorus (acoustic)

End by carrying the C#m.


That’s all.  Did the best I could and this is my first attempt at tabbing 
so let me know about changes or whatever.  Hope this helps.  God bless United.
Sarah

Comments about this tab

wowbertmz024 - 2006-07-26

The tabs and the chords were good!Thx


johny2x4 - 2006-09-06

well i havnt tried to play the solo but thanks for the help. i played this song last night on my acoustic with a capo on the 4th fret and it sounded very cool.


Lilypad 16 - 2006-12-31

Very good try but this song is in C/Am


lizzben - 2008-03-03

Watermark and Hillsong do the song in C. Hillsong United does the song in B, so you are actually both right. Now lets all try to get along and not let our guitar player pride get in the way of bringing glory to our Father in heaven. ;-)


Add a comment/correction

Complimentary Christian Ringtones
Dadamobile and CGR have teamed up to bring your favorite Christian artists right to your phone. Sign up today and get 10 complementary ringtones!
Tab Country
Did you know CGR has a sister site w/ country guitar tabs? Well we do! Its called Tab Country. It has a great archive with a lot of country tabs.
Rockin Tabs
Are you looking for a site that has rock guitar tabs? Then Rockintabs.com is the place for you. It is a budding site with many rock guitar tabs. Submit your tab today.
Tab Gallery
Tab Gallery has a compilation of christian, rock, and country tabs all in one place. Come visit us.