Guitar Tabs
song title    band name

Join Us Today!

Don't strum alone...
be a part of the largest online Christian music community. Browse thousands of guitar tabs and chat w/ musicians like yourself.


It's Free!

This tab has been rated a 5.00 out of 5 for accuracy. (2 votes)Sorry, but you must be logged in to rate this tab.
Click here to log-in, or you can click here to register.
(Registration is free)

All songs owned by corresponding publishing company. If you make copies of any song on this website, be sure to report your usage to CCLI.
Submitted by: tl_guitarnut

Artist: Hawk Nelson
song: Nothing Left to Show
cd: Smile, Its the end of the world
tuning: Standard
~=bend
h=hammer on


This is a fun song and fairly easy to play.

Intro

e | --------------------| 
B | --------------------| 
G | -------6------------| 
D | -6-----6------------| 
A | -6-----4------------| 2x 
E | -4------------------| 


Verse

e | ----------------------------------------------------|  
B | ----------------------------------------------------| 
G | -------6-----------6-----------6--------------------| 
D | -6-----6-----6-----6-----4-----6-----6-----4-----5--| 
A | -6-----4-----6-----4-----4-----4-----6-----4-----5--| 2x 
E | -4-----------4-----------2-----------4-----2-----3--| 


Pre-chorus

e | -------------------------|  
B | -------------------------| 
G | -------6-----------------| 
D | -4-----6-----------------| 
A | -4-----4-----------------| 
E | -2-----------------------| 


Chorus

e | ------------------------------------------| 
B | ------------------------5-4-2-1-----------| 
G | -------6-----------6----------------------| 
D | -6-----6-----8-----6----------------------| 
A | -6-----4-----8-----4----------------------| 
E | -4-----------6----------------------------| 

Play chorus twice but on the second time dont play the end riff 
but play this at the end

e | --------------------| 
B | --------------------| 
G | -------6------------| 
D | -4-----6------------| 
A | -4-----4------------| 
E | -2------------------| 


verse 2x

Pre-chorus

chorus 2x 

Bridge 1: Starts out with bass, then on the second time it goes into this

e | -2h4-----4h7-----7h9------------------|play the 4, 7, and 9 a lot 
B | --------------------------------------| 
G | --------------------------------------| 
D | --------------------------------------| 
A | --------------------------------------| 
E | --------------------------------------|


Bridge 2: part where screaming comes in

e | ----------------------------------------|  
B | --------------15~~~~--------------------| 
G | --------------13~~~~--------------------| 
D | -6-----4--------------------------------| 
A | -6-----4--------------------------------| 
E | -4-----2--------------------------------|


chorus 3x



 Im not sure about that last cool thing they do at the end of bridge 2 
and I didnt do the riffs on the last chorus, 
but I think the rest is pretty close. 
Hope you enjoy, please post ratings soon so I know what to correct.

God Bless,
tl_guitarnut





Comments about this tab

Te eF Kay - 2007-02-02

Looks easyer than any tab ive seen!
but looks can be decieving;)


christ*lives - 2007-05-19

Really awesome tab, keep up the good work!


Add a comment/correction

Complimentary Christian Ringtones
Dadamobile and CGR have teamed up to bring your favorite Christian artists right to your phone. Sign up today and get 10 complementary ringtones!
Tab Country
Did you know CGR has a sister site w/ country guitar tabs? Well we do! Its called Tab Country. It has a great archive with a lot of country tabs.
Rockin Tabs
Are you looking for a site that has rock guitar tabs? Then Rockintabs.com is the place for you. It is a budding site with many rock guitar tabs. Submit your tab today.
Tab Gallery
Tab Gallery has a compilation of christian, rock, and country tabs all in one place. Come visit us.