Guitar Tabs
song title    band name

Join Us Today!

Don't strum alone...
be a part of the largest online Christian music community. Browse thousands of guitar tabs and chat w/ musicians like yourself.


It's Free!

This tab has been rated a 4.33 out of 5 for accuracy. (3 votes)Sorry, but you must be logged in to rate this tab.
Click here to log-in, or you can click here to register.
(Registration is free)

All songs owned by corresponding publishing company. If you make copies of any song on this website, be sure to report your usage to CCLI.
Submitted by: scottsanders

Hey, I've never tabbed before, but I will give it a go. I'll at least give you a starting point... All notes can be played in easy chord shapes. You can mix up the picking, but this sounds kinda nice.

Tuning: D A D G A D
Note: s = slide
      ~ = or (eg. 2~0 means you could play fret 2 OR open)

Intro/Verse (repeat)
D |--------|----0----|---------|----0---|
A |----0---|--------0|-----0---|-------0|
G |--0--0-0|---0---0-|---0--0-0|--0---0-|
D |-7-7--7-|--9---9--|--4-4--4-|-2---3--|
A |5-------|s7-------|s2-------|0-------|
D |--------|---------|---------|--------|

Chorus (just the chords, listen to CD for rhythm)
D |-0-------|-0-------|-0-------|-0-------|
A |-0-------|-0-------|-0-------|-0-------|
G |-0-------|-0-------|-0-------|-0-------|
D |-5-------|-2-------|-5-------|-2-------|
A |-5-------|-2-------|-5-------|-2-------|
D |-5-------|2~0------|-5-------|2~0------|

Bridge (just the chords, listen to CD for rhythm)
D |-0-------|-0-------|-0-------|-0-------
A |-0-------|-0-------|-0-------|-0-------
G |-4-------|-7-------|-0-------|-0-------
D |-4-------|-7-------|-5-------|-2-------
A |-2-------|-5-------|-5-------|-2-------
D |-0-------|-0-------|-5-------|2~0------

That's pretty much it. I love how Shawn McDonald songs are so simple, yet so brilliant!

God bless,

Scott

p.s. let me know if i did something wrong, I've never tabbed before

Comments about this tab

No comments/corrections found. Add your own

Complimentary Christian Ringtones
Dadamobile and CGR have teamed up to bring your favorite Christian artists right to your phone. Sign up today and get 10 complementary ringtones!
Tab Country
Did you know CGR has a sister site w/ country guitar tabs? Well we do! Its called Tab Country. It has a great archive with a lot of country tabs.
Rockin Tabs
Are you looking for a site that has rock guitar tabs? Then Rockintabs.com is the place for you. It is a budding site with many rock guitar tabs. Submit your tab today.
Tab Gallery
Tab Gallery has a compilation of christian, rock, and country tabs all in one place. Come visit us.