Guitar Tabs
song title    band name

Join Us Today!

Don't strum alone...
be a part of the largest online Christian music community. Browse thousands of guitar tabs and chat w/ musicians like yourself.


It's Free!

This tab has not yet been rated for accuracy.Sorry, but you must be logged in to rate this tab.
Click here to log-in, or you can click here to register.
(Registration is free)

All songs owned by corresponding publishing company. If you make copies of any song on this website, be sure to report your usage to CCLI.
Submitted by: Disciple Freak

Ok, this song is in standard tuning (I play everything in standard tuning, lol)

intro

E---------------------------------------------------------------------------
B---------------------------------------------------------------------------
G---------------------------------------------------------------------------
D---x-x-x-1-x-x-1-1-x-x-x-1-x-x-1-1-----------------------------------------
A---x-x-x-1-x-x-1-1-x-x-x-1-x-x-1-1-----------------------------------------
E---------------------------------------------------------------------------

this is also played troughout the whole song

verse

E---------------------------------------------------------------------------
B---------------------------------------------------------------------------
G---------------------------------------------------------------------------
D---------------------------------------------------------------------------
A------0-0-0----0-0-0----0-0-0---2-1-0--x-x-x-x-3--2-1-0--------------------
E---3~-0-0-0-3~-0-0-0-3~-0-0-0---2-1-0--x-x-x-x-3--2-1-0--------------------

Pre-Chorus

E-----------------------6---------------------------------------------------
B---------------5h6-6-6---6-------------------------------------------------
G---------------------------------------------------------------------------
D---------------------------------------------------------------------------
A-x-x-x-x--0-1--------------------------------------------------2-hold-------
E-x-x-x-x--0-1--------------------------------------------------2-hold-------

Chorus

E----------------------------------------------------------------------------
B----------------------------------------------------------------------------
G----------------------------------------------------------------------------
D----------------------------------------------------------------------------
A---5-4--4-3--3-2--2-1-0-1---------------------------------------------------
E---5-4--4-3--3-2--2-1-0-1---------------------------------------------------

and after the chorus where he holds his scream it goes like this (clean)

E----------------------------------------------------------------------------
B----------------------------------------------------------------------------
G----------------------------------------------------------------------------
D----------------------------------------------------------------------------
A---2-3-0-2-3-0-2------------------------------------------------------------
E----0-----0-----------------------------------------------------------------

i think u can figure out all the repeats and that stuff. plz correct me if i'm 
wrong on this tab. keep rockin' for the Lord! :)



Comments about this tab

Disciple Freak - 2006-05-16

i'll add down here on the comments the outro, as soon as i figure that out, sorry i forgot it.


Disciple Freak - 2006-05-16

also where it goes like this

e------------------------------------------------
b------------------------------------------------
g------------------------------------------------
d------------------------------------------------
a-------0-0-0-0----------------------------------
e---3~--0-0-0-0----------------------------------

after that should be the bridge


Disciple Freak - 2006-05-16

im srry i forgot something!

~-bend
h-hammer on
x-mute the string (or strings)


Add a comment/correction

Complimentary Christian Ringtones
Dadamobile and CGR have teamed up to bring your favorite Christian artists right to your phone. Sign up today and get 10 complementary ringtones!
Tab Country
Did you know CGR has a sister site w/ country guitar tabs? Well we do! Its called Tab Country. It has a great archive with a lot of country tabs.
Rockin Tabs
Are you looking for a site that has rock guitar tabs? Then Rockintabs.com is the place for you. It is a budding site with many rock guitar tabs. Submit your tab today.
Tab Gallery
Tab Gallery has a compilation of christian, rock, and country tabs all in one place. Come visit us.