Guitar Tabs
song title    band name

Join Us Today!

Don't strum alone...
be a part of the largest online Christian music community. Browse thousands of guitar tabs and chat w/ musicians like yourself.


It's Free!

This tab has been rated a 1.50 out of 5 for accuracy. (4 votes)Sorry, but you must be logged in to rate this tab.
Click here to log-in, or you can click here to register.
(Registration is free)

All songs owned by corresponding publishing company. If you make copies of any song on this website, be sure to report your usage to CCLI.
Submitted by: Disciple Freak

this is an awesome song. it talks about saying "you're the only one i will 
live and die for". thats why i worked on tabbing this song. this is in standard
tuning.

chorus/intro

E-0-0-0-0---0-0-0-0--------------------------------------------------
B-0-0-0-0---0-0-0-0--------------------------------------------------
G-9-9-9-9---2-2-2-2--------------------------------------------------
D-9-9-9-9---2-2-2-2--------------------------------------------------
A-7-7-7-7---0-0-0-0--------------------------------------------------
E-0-0-0-0---0-0-0-0--------------------------------------------------

verse

E--------------------------------------------------------------------
B--------------------------------------------------------------------
G--------------------------------------------------------------------
D------2-----3-----2-----------2-------------------------------------
A-----2-----3-----2-----------2--------------------------------------
E--0-0---1-1---0-0-----------0---------------------------------------

outro (same as verse outro)

everyone have fun like i did! try to tab as many songs as u can! but remember
who we're playing guitar for. enjoy playing this song. :)

Comments about this tab

ejsmojo - 2006-06-11

I am sorry to say but I am pretty sure this is completely wrong.

The chorus is G and F in that order.
The verse (where he finger picks) is E F on 6th string then B C on 5th

let me know if I am wrong but I think this is correct.


Disciple Freak - 2006-06-16

is it realy that bad? ok, i messed up, but a zero, that bad?

ok...

chorus- G F G F

verse- G D C

ok... is that a little better?


Disciple Freak - 2006-07-14

Intro/ Chorus- G F G F

this i am pretty sure is right because when i saw him play the song in concert it looked like he was doing this...

Verse

E------------------------------------------------------------------------------
B------------------------------------------------------------------------------
G------------------------------------------------------------------------------
D------------------------------------------------------------------------------
A-------3-4-----3-4-----3-4----------------------------------------------------
E---0-0-----2-2-----0-0--------------------------------------------------------

tell me if i'm wrong!


68lespaul - 2006-08-09

it is pretty close!!!! from what i play at my church this is how we do it!!!

the verse is-
D-----------------------------------
A------3-4---------3-4-----------3-4
E--1-1-------1-1-----------0-0------

then the chorus cords are G and F but on the lil pick ups you go to A then F

G F A F G F
I will live and die for you only, only

G F A F A F
and I will die to live for you only, only


68lespaul - 2006-08-09

acctually the verse is

D--------------------------------------
A--------2-3----------2-3---------2-3--
E--0-1----------0-1---------0----------


and if anyone wants it in Drop D then just give me a email at jeshuaservant@yahoo.com


Disciple Freak - 2006-11-13

Actually the verse should be- G F G F


Add a comment/correction

Complimentary Christian Ringtones
Dadamobile and CGR have teamed up to bring your favorite Christian artists right to your phone. Sign up today and get 10 complementary ringtones!
Tab Country
Did you know CGR has a sister site w/ country guitar tabs? Well we do! Its called Tab Country. It has a great archive with a lot of country tabs.
Rockin Tabs
Are you looking for a site that has rock guitar tabs? Then Rockintabs.com is the place for you. It is a budding site with many rock guitar tabs. Submit your tab today.
Tab Gallery
Tab Gallery has a compilation of christian, rock, and country tabs all in one place. Come visit us.