Guitar Tabs
song title    band name

Join Us Today!

Don't strum alone...
be a part of the largest online Christian music community. Browse thousands of guitar tabs and chat w/ musicians like yourself.


It's Free!

This tab has been rated a 4.00 out of 5 for accuracy. (1 vote)Sorry, but you must be logged in to rate this tab.
Click here to log-in, or you can click here to register.
(Registration is free)

All songs owned by corresponding publishing company. If you make copies of any song on this website, be sure to report your usage to CCLI.
Submitted by: Polartitan

Artist: Superchic[k]
Song: I Belong to You
Album: Last One Picked
Transcribed: Jesse (Polartitan@hotmail.com)

This picking section is exact.  The strumming parts are shaky.  This is my first 

tab, I hope it helps fill out the gaps the other tabs leave.  I'm going to work 

on the other guitars in this song too.  Check back in a week or something.

Guitar One 

e|-----------------|-----------0-----|-----------------|-----------------|
B|-------3---------|-------3-----3---|-------3---------|-------3-------3-|
G|-----0-----------|-----0---------0-|-----0-----------|-----0-------0---|
D|---2-------------|---2-------------|---2-------------|---3-------3-----|
A|-3---------------|-2---------------|-0---------------|-----------------|
E|-----------------|-----------------|-----------------|-1-------3-------|

e|-----------------|-----------0-----|-----------------|-----------0-----|
B|-------3---------|-------3-----3---|-------3---------|-------3-----3---|
G|-----0-----------|-----0---------0-|-----0-----------|-----0---------0-|
D|---2-------------|---2-------------|---2-------------|---3-------------|
A|-3---------------|-2---------------|-0---------------|-----------------|
E|-----------------|-----------------|-----------------|-1---------------|

e|-----------------|-----------0-----|-----------------|-----------------|
B|-------3---------|-------3-----3---|-------3---------|-------3-------3-|
G|-----0-----------|-----0---------0-|-----0-----------|-----0-------0---|
D|---2-------------|---2-------------|---2-------------|---3-------3-----|
A|-3---------------|-2---------------|-0---------------|-----------------|
E|-----------------|-----------------|-----------------|-1-------3-------|

e|-----------------|-----------------|-----------------|-----------------|
B|-------3-------3-|-------3-------3-|-------3-------3-|-------3-------3-|
G|-----0-------0---|-----0-------0---|-----0-------0---|-----0-------0---|
D|---2-------2-----|---2-------2-----|---3-------3-----|---3-------3-----|
A|-3---------------|-----------------|-----------------|-----------------|
E|-----------------|-----------------|-1---------------|-----------------|

e|-------0-------0-|-------0-------0-|-------5-------5-|-----------------|
B|-----------------|-----------------|-----------------|-------3-------3-|
G|-----0-------0---|-----0-------0---|---5-------5-----|-----0-------0---|
D|---5-------5-----|---5-------5-----|-----5-------5---|---3-------3-----|
A|-0---------------|-----------------|-5---------------|-----------------|
E|-----------------|-----------------|-----------------|-1-------3-------|

e|-----------------|-----------0-----|-----------------|-----------0-----|
B|-------3---------|-------3-----3---|-------3---------|-------3-----3---|
G|-----0-----------|-----0---------0-|-----0-----------|-----0---------0-|
D|---2-------------|---2-------------|---2-------------|---3-------------|
A|-3---------------|-2---------------|-0---------------|-----------------|
E|-----------------|-----------------|-----------------|-1---------------|

e|-----------------|-----------0-----|-----------------|-----------------|
B|-------3---------|-------3-----3---|-------3---------|-------3-------3-|
G|-----0-----------|-----0---------0-|-----0-----------|-----0-------0---|
D|---2-------------|---2-------------|---2-------------|---3-------3-----|
A|-3---------------|-2---------------|-0---------------|-----------------|
E|-----------------|-----------------|-----------------|-1-------3-------|

e|-----------------|-----------0-----|-----------------|-----------0-----|
B|-------3-------3-|-------3-----3---|-------3-------3-|-------3-----3---|
G|-----0-------0---|-----0---------0-|-----0-------0---|-----0---------0-|
D|---2-------2-----|---2-------------|---2-------2-----|---3-------------|
A|-3---------------|-2---------------|-0---------------|-----------------|
E|-----------------|-----------------|-----------------|-1---------------|

e|-----------------|-----------0-----|-----------------|-----------------|
B|-------3-------3-|-------3-----3---|-------3-------3-|-------3-------3-|
G|-----0-------0---|-----0---------0-|-----0-------0---|-----0-------0---|
D|---2-------2-----|---2-------------|---2-------2-----|---3-------3-----|
A|-3---------------|-2---------------|-0---------------|-----------------|
E|-----------------|-----------------|-----------------|-1-------3-------|

e|-----------------|-----------------|-----------------|-----------------|
B|-------3-------3-|-------3-------3-|-------3-------3-|-------3-------3-|
G|-----0-------0---|-----0-------0---|-----0-------0---|-----0-------0---|
D|---2-------2-----|---2-------2-----|---3-------3-----|---3-------3-----|
A|-3---------------|-----------------|-----------------|-----------------|
E|-----------------|-----------------|-1---------------|-----------------|

e|-------0-------0-|-------0-------0-|-------5-------5-|-----------------|
B|-----------------|-----------------|-----------------|-------3-------3-|
G|-----0-------0---|-----0-------0---|---5-------5-----|-----0-------0---|
D|---5-------5-----|---5-------5-----|-----5-------5---|---3-------3-----|
A|-0---------------|-----------------|-5---------------|-----------------|
E|-----------------|-----------------|-----------------|-1-------3-------|

Strumming C(add9), ------  +  ------ Whatever this chord is  ------ +  ------
                   ||||1|     ||||||                       3 11||11  3 11|||1 
                   ||2|||     ||2|||                         ||||||    ||||||
                   |3||||     |3||3|                         ||33||    ||333|
                   ||||||     ||||||                         ||||||    ||||||

e|-----------------|-----------0-----|-----------------|-----------0-----|
B|-------3-------3-|-------3-----3---|-------3-------3-|-------3-----3---|
G|-----0-------0---|-----0---------0-|-----0-------0---|-----0---------0-|
D|---2-------2-----|---2-------------|---2-------2-----|---3-------------|
A|-3---------------|-2---------------|-0---------------|-----------------|
E|-----------------|-----------------|-----------------|-1---------------|

e|-----------------|-----------0-----|-----------------|-----------------|
B|-------3-------3-|-------3-----3---|-------3-------3-|-------3-------3-|
G|-----0-------0---|-----0---------0-|-----0-------0---|-----0-------0---|
D|---2-------2-----|---2-------------|---2-------2-----|---3-------3-----|
A|-3---------------|-2---------------|-0---------------|-----------------|
E|-----------------|-----------------|-----------------|-1-------3-------|

There is some more strumming here similar to the stuff above but I can't figure 

it out.  If someone can, and can edit the other strumming part better I'd love to 

hear from you.

Comments about this tab

Rkchic[k] - 2006-07-06

i love this song...awesome tab. thanx


Add a comment/correction

Complimentary Christian Ringtones
Dadamobile and CGR have teamed up to bring your favorite Christian artists right to your phone. Sign up today and get 10 complementary ringtones!
Tab Country
Did you know CGR has a sister site w/ country guitar tabs? Well we do! Its called Tab Country. It has a great archive with a lot of country tabs.
Rockin Tabs
Are you looking for a site that has rock guitar tabs? Then Rockintabs.com is the place for you. It is a budding site with many rock guitar tabs. Submit your tab today.
Tab Gallery
Tab Gallery has a compilation of christian, rock, and country tabs all in one place. Come visit us.