Guitar Tabs
song title    band name

Join Us Today!

Don't strum alone...
be a part of the largest online Christian music community. Browse thousands of guitar tabs and chat w/ musicians like yourself.


It's Free!

This tab has been rated a 5.00 out of 5 for accuracy. (6 votes)Sorry, but you must be logged in to rate this tab.
Click here to log-in, or you can click here to register.
(Registration is free)

All songs owned by corresponding publishing company. If you make copies of any song on this website, be sure to report your usage to CCLI.
Submitted by: Dani_Boy

Artist: Thousand Foot Krutch
Song: Quicken
Album: Phenomenon
Tuning: Drop D

My previous tab really sucked, so I've done a new corrected one.

Rhythm Guitar has lots of distortion, but the Lead Guitar plays with what
sounds like less presence and less distortion. (In the verses it has a
different sound) Just listen and you'll hear it.

/ = Slide up
\ = Slide down
P.M. = Palm Muting
|--LG--| = Marks area in a Rhythm Guitar section where the Lead Guitar plays.
b = Bend string to the pitch of the indicated note. If many b's in a chain,
keep bending to the pitches of the indicated notes, don't play with pick.

  Intro: (Rhythm Guitar)               |-LG-|
G|-------------------------------------3/555--|
D|--5--5--xx-x5/8888/1010100-3-xx-x0---x/xxx--|
A|--5--5--xx-x5/8888/1010100-3-xx-x0-001/333--|
D|--5--5--xx-x5/8888/1010100-3-xx-x0-00-------|

G|------------------------------------------|
D|--5--5--55-55/8888/1010100-3-33301--1--1--|
A|--5--5--55-55/8888/1010100-3-33301--1--1--|
D|--5--5--55-55/8888/1010100-3-33301--1--1--|


  Verse 1: (Lead Guitar, listen to hear when to play the different sections.)
E|---------10--------|---------10-|-----------------------------------|
B|--11--8---------10-|--11--8-----|--10b11b10b11b10-------------------|
G|-------------------|------------|---------------------10---------10-|
D|-------------------|------------|-------------------------8---------|
A|-------------------|------------|----------------------------10-----|


  Pre-Chorus: (Rhythm Guitar)
                        |---------LG---------|
B|----------------------10--10--10--10--10/11--|
G|----------------------9---9---9---9---9-/10--|
D|--8-8\77-5-5/7777/88-------------------------|
A|--8-8\77-5-5/7777/88-------------------------|
D|--8-8\77-5-5/7777/88-------------------------|


  Chorus: (Rhythm Guitar)               |-LG-|
G|--------------------------------------3/555-|
D|--5--5--55--5/8888/1010100-3-33-------x/xxx-|
A|--5--5--55--5/8888/1010100-3-33-------1/333-|
D|--5--5--55--5/8888/1010100-3-33--0-3p0------|

                                        |-LG-|
G|--------------------------------------3/555-|
D|--5--5--55--5/8888/1010100-3-xx-x-----x/xxx-|
A|--5--5--55--5/8888/1010100-3-xx-x-----1/333-|
D|--5--5--55--5/8888/1010100-3-xx-x0-3p0------|

                                         |-LG-|
G|---------------------------------------3/555-|
D|--5--5--55--5/8888/1010100-3-33--------x/xxx-|
A|--5--5--55--5/8888/1010100-3-33--------1/333-|
D|--5--5--55--5/8888/1010100-3-33---0-3p0------|
   
G|---------------------------------------------|
D|--5--5--55--5/8888/1010--1--1--1-------------|
A|--5--5--55--5/8888/1010--1--1--1-------------|
D|--5--5--55--5/8888/1010--1--1--1-------------|


  Verse 2: (Lead Guitar, listen to hear when to play the different sections.)
E|---------10-|---------10--------|--10--------------------|
B|--11--8-----|--11--8---------10-|--8---------------------|
G|------------|-------------------|----------10---------10-|
D|------------|-------------------|--------------8---------|
A|------------|-------------------|-----------------10-----|


Pre-Chorus

  Chorus, from here on, Lead Guitar adds this to the end of the chorus:
 "...Break us!"
  G|--3/555--|
  D|--x/xxx--|
  A|--1/333--
  D|---------|


  Bridge: (Lead Guitar)
E|--------------------------------------------------|
B|--------------------------------------------------|
G|--7-7-7-7-7-7-7-7-7-7-7-7-5-5-5-5-5-5-5-5-5-5-5-5-|
D|--x-x-x-x-x-x-x-x-x-x-x-x-x-x-x-x-x-x-x-x-x-x-x-x-|
A|--5-5-5-5-5-5-5-5-5-5-5-5-3-3-3-3-3-3-3-3-3-3-3-3-|

E|-------------------------------------|
B|-------------------11-----11---------|
G|3---3---3---3------10-----10---5--5--|
D|x---x---x---x------------------x-x--|
A|1---1---1---1---0-0----0-0-----3--3--|

E|--------------------------------|
B|--------------------------------|
G|77777777777777775555555555555555|
D|xxxxxxxxxxxxxxxxxxxxxxxxxxxxxxxx|
A|55555555555555553333333333333333|

E|---------------------------------------------|
B|--------------------11-11-----11---10-10-10--|
G|3-3-3-3-3-3-3-3-----10-10-----10---9--9--9---|
D|x-x-x-x-x-x-x-x------------------------------|
A|1-1-1-1-1-1-1-1------------------------------|

Chorus


That's all there is to it. You can try to play everything with one guitar if
you like, but then you won't get the special sound that TFK's got. This tab
will be much more accurate then my previous one, but please tell me it you
find mistakes. TFK ROCKS!!!
God Bless,
Daniel

Comments about this tab

akaukal - 2006-05-03

wow this one's alot better! I give it an easy 5!


Dani_Boy - 2006-05-03

Thanks.


tl_guitarnut - 2006-05-09

Oh yeah I totally agree with akaukal


Te eF Kay - 2006-08-04

I love the sound of the bridge!!!


Te eF Kay - 2006-08-09

its not going to get any better but I rate this a 5!


Succumb2Mercy - 2006-08-23

Once again another beautiful TFK Tab dani_boy


Dani_Boy - 2006-09-24

Thanks, I appreciate it. :D


Add a comment/correction

Complimentary Christian Ringtones
Dadamobile and CGR have teamed up to bring your favorite Christian artists right to your phone. Sign up today and get 10 complementary ringtones!
Tab Country
Did you know CGR has a sister site w/ country guitar tabs? Well we do! Its called Tab Country. It has a great archive with a lot of country tabs.
Rockin Tabs
Are you looking for a site that has rock guitar tabs? Then Rockintabs.com is the place for you. It is a budding site with many rock guitar tabs. Submit your tab today.
Tab Gallery
Tab Gallery has a compilation of christian, rock, and country tabs all in one place. Come visit us.