Guitar Tabs
song title    band name

Join Us Today!

Don't strum alone...
be a part of the largest online Christian music community. Browse thousands of guitar tabs and chat w/ musicians like yourself.


It's Free!

This tab has been rated a 0.00 out of 5 for accuracy. (1 vote)Sorry, but you must be logged in to rate this tab.
Click here to log-in, or you can click here to register.
(Registration is free)

All songs owned by corresponding publishing company. If you make copies of any song on this website, be sure to report your usage to CCLI.
Submitted by: Jimmyness

This is more of the guitar version.  The Newsboys play the main part with a keyboard so this is for the guitar.	


Intro and chorus
E---------------------------------------------------------------------------------------------
A---3-----3---------3------------------3---------------3-3---------3-5-1----------------
D------------2-3-5---3------3-----------2----2-2-0-0---------3-2-----------------------
G--------------------------------2-3-5------------------------------------------------------
B---------------------------------------------------------------------------------------------
E---------------------------------------------------------------------------------------------
Verse
F G Am
F G C(or tab)
F G Am
F G C

tab
G-0----------0-------0----------0-----
B----1,3-------1-------1,3--------1---
E--------0---------0--------0--------0

I haven't figured out the interlude between the guitar solo and the last 2 choruses so I'l post in a while.

Comments about this tab

capo 2nd fret - 2007-03-18

no offense dude,
but that tab isn't even close.


Jimmyness - 2007-03-30

tabs perfect. Its just I have it upside down. I've played it millions of times with my band and with the CD. Works fine.


Add a comment/correction

Complimentary Christian Ringtones
Dadamobile and CGR have teamed up to bring your favorite Christian artists right to your phone. Sign up today and get 10 complementary ringtones!
Tab Country
Did you know CGR has a sister site w/ country guitar tabs? Well we do! Its called Tab Country. It has a great archive with a lot of country tabs.
Rockin Tabs
Are you looking for a site that has rock guitar tabs? Then Rockintabs.com is the place for you. It is a budding site with many rock guitar tabs. Submit your tab today.
Tab Gallery
Tab Gallery has a compilation of christian, rock, and country tabs all in one place. Come visit us.