Guitar Tabs
song title    band name

Join Us Today!

Don't strum alone...
be a part of the largest online Christian music community. Browse thousands of guitar tabs and chat w/ musicians like yourself.


It's Free!

This tab has been rated a 3.60 out of 5 for accuracy. (5 votes)Sorry, but you must be logged in to rate this tab.
Click here to log-in, or you can click here to register.
(Registration is free)

All songs owned by corresponding publishing company. If you make copies of any song on this website, be sure to report your usage to CCLI.
Submitted by: Adam K

Hawk Nelson-Is Forever Enough
From: Smile, It's The End Of The World
Copyright  2006 Tooth and Nail Records
Drop C Tuning C-G-C-F-A-D

palm mute=...etc.
sd=slide down


Intro
Gtr. 2
F[---------------------------]
C[-0--8--3--5--0--7--3--5----]
G[-0--8--3--5--0--7--3--5----]
C[-0--8--3--5--0--7--3--5----]

Gtr. 1
G[--8-7/8--8-7/8--8-7/8-10-8-7/8/7--]x2

Verse 1
C[-0-0xxx0-0xxx0-0xxx8--10-0-0xxx0-0xxx0-0xxx3--10----]
G[-0-0xxx0-0xxx0-0xxx8--10-0-0xxx0-0xxx0-0xxx3--10----]
C[-0-0xxx0-0xxx0-0xxx8--10-0-0xxx0-0xxx0-0xxx3--10----]
Then
Gtr. 1
C[-0-0xxx0-0xxx0-0xxx8--10-0-0xxx0-0xxx0-0xxx3--10----]
G[-0-0xxx0-0xxx0-0xxx8--10-0-0xxx0-0xxx0-0xxx3--10----]
C[-0-0xxx0-0xxx0-0xxx8--10-0-0xxx0-0xxx0-0xxx3--10----]

Gtr. 2
F[-14-12-10-9-7--10--12----]
C[--x--x--x-x-x---x---x----]x2
G[-12-10--8-7-5---8--10----]

Pre-Chorus
F[-7------------7-------------------------]
C[-7--8--10--5--7--8--10--5--5-5-5-5sd----]
G[-5--8--10--5--5--8--10--5--5-5-5-5sd----]
C[----8--10--5-----8--10--5--5-5-5-5sd----]
  ..........................
Stop

Chorus
F[--------------7---7-7-5-------]
C[-3----8----0--x-0-x-x-5--8----]
G[-3----8----0--5-0-5-5-3--8----]x2
C[-3----8----0----0--------8----]

Post-Chorus
(Same as Intro)

Verse 2
Gtr. 1
C[-0-0xxx0-0xxx0-0xxx8--10-0-0xxx0-0xxx0-0xxx3--10----]
G[-0-0xxx0-0xxx0-0xxx8--10-0-0xxx0-0xxx0-0xxx3--10----]
C[-0-0xxx0-0xxx0-0xxx8--10-0-0xxx0-0xxx0-0xxx3--10----]
Then
Gtr. 1
C[-0-0xxx0-0xxx0-0xxx8--10-0-0xxx0-0xxx0-0xxx3--10----]
G[-0-0xxx0-0xxx0-0xxx8--10-0-0xxx0-0xxx0-0xxx3--10----]
C[-0-0xxx0-0xxx0-0xxx8--10-0-0xxx0-0xxx0-0xxx3--10----]

Gtr. 2
F[-14-12-10-9-7--10--12----]
C[--x--x--x-x-x---x---x----]x2
G[-12-10--8-7-5---8--10----]

Pre-Chorus 2
F[-7------------7------------]
C[-7--8--10--5--7--8--10--5--]
G[-5--8--10--5--5--8--10--5--]
C[----8--10--5-----8--10--5--]
  ...........................
Then
Gtr. 1
F[-7------------7-------------------------]
C[-7--8--10--5--7--8--10--5--5-5-5-5sd----]
G[-5--8--10--5--5--8--10--5--5-5-5-5sd----]
C[----8--10--5-----8--10--5--5-5-5-5sd----]
  ..........................

Gtr. 2
A[-5---5----5-5-5-5----]
F[---7---7--7-7-7-7----]x2
Stop

Chorus

Bridge
Bass only
Then
Gtr. 2
A[-5---5----5-5-5-5----]
F[---7---7--7-7-7-7----]x2
Then 
Gtr. 1
C[-5-5-5-5sd----]
G[-5-5-5-5sd----]
C[-5-5-5-5sd----]
Stop

Chorus

Interlude
Gtr. 1
F[------5--------------]
C[-3----5----0----8----]
G[-3----3----0----8----]x2
C[-3---------0----8----]

Gtr. 2
F[-10----9---7-9-10----]
C[--x----x---x-x--x----]
G[--8----7---5-7--8----]

F[-10----9---7----]
C[--x----x---x----]
G[--8----7---5----]

Ending
Gtr. 2
F[---------------------------]
C[-0--8--3--5--0--7--3--5----]
G[-0--8--3--5--0--7--3--5----]
C[-0--8--3--5--0--7--3--5----]

Gtr. 1
G[--8-7/8--8-7/8--8-7/8-10-8-7/8/7--]x2
Then
Gtr. 1
C[-0-0xxx0-0xxx0-0xxx8--10-0-]
G[-0-0xxx0-0xxx0-0xxx8--10-0-]
C[-0-0xxx0-0xxx0-0xxx8--10-0-]

Gtr. 2
F[-14-12-10-9-7--10--12----]
C[--x--x--x-x-x---x---x----]
G[-12-10--8-7-5---8--10----]


Tabbed by Adam K

Comments about this tab

xDisconnektiex - 2006-06-03

I just got the tab so i'll tell you how it is as soon as i try it. it looks pretty good though.


xDisconnektiex - 2006-06-03

Dude, this tab is freaking awesome! Great job!!


relient nelson - 2006-06-04

There are harmonics on the x's in the verse.


Screamo_Rocker - 2006-06-04

the lead guitar on the intro is this


C---------------------------------------
G-5-5-8-7-8---8-7-8----8-7-8-10-8-7-6-7--
C----------8-8-----7-7------------------

C--------------------------------
G-8-7-8-----8-7-8-----8-7-8-10-8-7-- x2
C-------7-7-------9-9--------------10

Other than thats its pretty accurate


Screamo_Rocker - 2006-06-04

Sorry I mean

C---------------------------------------
G-5-5-8-7-8---8-7-8----8-7-8-10-8-7-8-7--
C----------8-8-----7-7------------------

C--------------------------------
G-8-7-8-----8-7-8-----8-7-8-10-8-7-- x2
C-------7-7-------9-9--------------10


relient nelson - 2006-06-04

Screamo rocker..person... yah, I agree with you, only I play it on the top three strings. Check out my version of this song if you wanna see.


JimBob083 - 2006-06-11

this tab is also wrong lokk at the last tab on the other page.


Add a comment/correction

Complimentary Christian Ringtones
Dadamobile and CGR have teamed up to bring your favorite Christian artists right to your phone. Sign up today and get 10 complementary ringtones!
Tab Country
Did you know CGR has a sister site w/ country guitar tabs? Well we do! Its called Tab Country. It has a great archive with a lot of country tabs.
Rockin Tabs
Are you looking for a site that has rock guitar tabs? Then Rockintabs.com is the place for you. It is a budding site with many rock guitar tabs. Submit your tab today.
Tab Gallery
Tab Gallery has a compilation of christian, rock, and country tabs all in one place. Come visit us.