Guitar Tabs
song title    band name

Join Us Today!

Don't strum alone...
be a part of the largest online Christian music community. Browse thousands of guitar tabs and chat w/ musicians like yourself.


It's Free!

This tab has been rated a 5.00 out of 5 for accuracy. (2 votes)Sorry, but you must be logged in to rate this tab.
Click here to log-in, or you can click here to register.
(Registration is free)

All songs owned by corresponding publishing company. If you make copies of any song on this website, be sure to report your usage to CCLI.
Submitted by: Adam K

Switchfoot-Lonely Nation
From: Nothing Is Sound
Copyright  2005 Columbia Records
Drop D Tuning D-A-D-G-B-E

~=let it ring
s=slide
h=hammer on
 
Intro
Gtr. 2
B[-5~~~~--]

Gtr. 1
B[-5~~8~~-]
Then
Gtr. 1
E[--0------0--------]
B[-3----3------3----]x4
G[----4------4------]

Gtr. 2
B[------8--8--8----]
G[------x--x--x----]x2
D[-2~~~~5--5--5----]

Verse 1
Gtr. 2
(They use some sort of pedal to make it sound wavy/choppy)
G[-9----9----9----5----]
D[-9----9----9----5----]
A[-7----7----7----3----]

Gtr. 1
G[-5----]
D[-5----]
A[-3----]
Then
Gtr. 2
E[--0------0--------]
B[-3----3------3----]x3
G[----4------4------]
Then
Gtr. 1
G[-5----4----5-xxxx--]
D[-5----4----5-xxxx--]
A[-3----2----3-xxxx--]

Chorus
G[----7-----7-----11-----11s12------12-----12------12--------------]
D[-5--7-xx5-7--0---x-xx0--xs-x--10--12--10-12--10--12-10--10h12----]
A[-5----xx5----0---9-xx0--9s10--10------10-----10-----10--10h12----]x2
D[-5----xx5----0-----xx0--------10------10-----10-----10--10h12----]

Post-Chorus
Gtr. 1
E[--0------0--------]
B[-3----3------3----]x4
G[----4------4------]

Gtr. 2
B[------10/12/10h12----]
G[---------------------]
D[-2~~~~---------------]

Verse 2
Gtr. 1
G[---------x9-x11-x9---------x9-x11-x7---------x9-x11-x7----]
D[----------------------------------------------------------]
A[-7-x7-7-------------7-x7-7------------7-x7-7--------------]
Then
D[-5~~4~~--]
Then
Gtr. 1
G[---------x9-x11-x9---------x9-x11-x7---------x9-x11-x7----]
D[----------------------------------------------------------]
A[-7-x7-7-------------7-x7-7------------7-x7-7--------------]

Gtr. 2
B[-15/17----15--17----15----]
G[-------14--------14-------]x3
Then
Gtr. 1
G[-5-xxxx--]
D[-5-xxxx--]
A[-3-xxxx--]

Chorus

Bridge
Gtr. 1
G[-5/5-xx-xx-xx-5/5-xx-xx-4/4/4/4----7/7/7/7----7/7/7/7----]
D[-5/5-xx-xx-xx-5/5-xx-xx-4/4/4/4----7/7/7/7----7/7/7/7----]
A[-3/3-xx-xx-xx-3/3-xx-xx-2/2/2/2----5/5/5/5----5/5/5/5----]
D[---------------------------------------------------------]

Gtr. 2
B[--------8/8/8/8-----------------------8/8/8/8-----------------------]
G[-5/5/5/5-------7/7/7/7/4/4/4/4-5/5/5/5-------9/9/9/9/4/4/4/4--------]
Then
Gtr. 1
D[---2x---2x---2x---2x--0-2---2-0-2------------]
A[-5-2x-5-2x-5-2x-5-2x--0-2-5-2-0-2-5/5/5/5----]
D[---2x---2x---2x---2x--0-2---2-0-2------------]
Then
E[-15----10---7----]x6
Then
Gtr. 2
E[-15----10---7----]

Gtr. 1
G[---4---5-xxxx--]
D[---x---x-xxxx--]
A[---2---3-xxxx--]

Chorus 2
G[----7-----7-----11-----11s12------12-----12------12--------------]
D[-5--7-xx5-7--0---x-xx0--xs-x--10--12--10-12--10--12-10--10h12----]
A[-5----xx5----0---9-xx0--9s10--10------10-----10-----10--10h12----]
D[-5----xx5----0-----xx0--------10------10-----10-----10--10h12----]

G[----7-----7-----11-----11s12------12-----12------12-------------]
D[-5--7-xx5-7--0---x-xx0--xs-x--10--12--10-12--10--12-10--10/0----]
A[-5----xx5----0---9-xx0--9s10--10------10-----10-----10--10/0----]
D[-5----xx5----0-----xx0--------10------10-----10-----10--10/0----]

Ending
D[-0h2/2/2-0h2/2/2--]
A[-0h2/2/2-0h2/2/2--]x4
D[-0h2/2/2-0h2/2/2--]
Then
Gtr. 1
D[-0-2---2-0-2---------10----]
A[-0-2-5-2-0-2-5/5/5/5-10----]
D[-0-2---2-0-2---------10----]
Then
Gtr. 2
E[-15----10---7--5----]


Tabbed by Adam K

Comments about this tab

5isakoolnumber - 2007-03-26

YEAH ADAM (if thats your name)
let me be the fist and only so far to say i like your tab!
1st fan


5isakoolnumber - 2007-03-26

oh yeah
God bless all!


Add a comment/correction

Complimentary Christian Ringtones
Dadamobile and CGR have teamed up to bring your favorite Christian artists right to your phone. Sign up today and get 10 complementary ringtones!
Tab Country
Did you know CGR has a sister site w/ country guitar tabs? Well we do! Its called Tab Country. It has a great archive with a lot of country tabs.
Rockin Tabs
Are you looking for a site that has rock guitar tabs? Then Rockintabs.com is the place for you. It is a budding site with many rock guitar tabs. Submit your tab today.
Tab Gallery
Tab Gallery has a compilation of christian, rock, and country tabs all in one place. Come visit us.