Guitar Tabs
song title    band name

Join Us Today!

Don't strum alone...
be a part of the largest online Christian music community. Browse thousands of guitar tabs and chat w/ musicians like yourself.


It's Free!

This tab has been rated a 2.67 out of 5 for accuracy. (3 votes)Sorry, but you must be logged in to rate this tab.
Click here to log-in, or you can click here to register.
(Registration is free)

All songs owned by corresponding publishing company. If you make copies of any song on this website, be sure to report your usage to CCLI.
Submitted by: hellomcfly1217

"This is the complete song, including the harmony guitar parts and solo. It 
should be 100% accurate, because it's really easy! Anywho, enjoy the tabs!"

-Aaron
Alabar & Last Resort

Tuning: drop Db (C#,G#,C#,F#,A#,D#)

INTRO:
D#|-------------------------------|   |----------------------------------------|
A#|-------------------------------|   |----------------------------------------|
F#|-------------------------------|   |----------------------------------------|
C#|-10-10-10-12\0-0-0-0-0-0-0-0-0-|   |-10-10-10-12\0-0-0-0-0-0-0-0-0-10-10-10-|
G#|-10-10-10-12\0-0-0-0-0-0-0-0-0-|2x |-10-10-10-12\0-0-0-0-0-0-0-0-0-10-10-10-|
C#|-10-10-10-12\0-0-0-0-0-0-0-0-0-|   |-10-10-10-12\0-0-0-0-0-0-0-0-0-10-10-10-|

INTRO PART 2:                                INTRO PART 2 HARMONY:
D#|---------------------------------------|  |---------------------------|
A#|---------------------------------------|  |---------------------------|
F#|---------------------------------------|  |------------0---------0--2-|
C#|-(0)-(0)-0--2-(0)-(0)-2--3-(0)-(0)-0-7-|  |-(0)-(0)-3----(0)-(0)------|
G#|-(0)-(0)------(0)-(0)------(0)-(0)-0-7-|  |-(0)-(0)------(0)-(0)------|
C#|-(0)-(0)------(0)-(0)------(0)-(0)-0-7-|  |-(0)-(0)------(0)-(0)------|

VERSE:
D#|-------------------------------------------|
A#|-------------------------------------------|
F#|-------------------------------------------|
C#|-(0)-(0)-(0)-(0)-(0)-5-4-(0)-(0)-5-4-0-7\0-| 3x
G#|-(0)-(0)-(0)-(0)-(0)-5-4-(0)-(0)-5-4-0-7\0-|
C#|-(0)-(0)-(0)-(0)-(0)-5-4-(0)-(0)-5-4-0-7\0-|

D#|--------------------------------|
A#|--------------------------------|
F#|--------------------------------|
C#|-0--0-7-5-3-7-0--0-7--7-9-10-7\-|
G#|-0--0-7-5-3-7-0--0-7--7-9-10-7\-|
C#|-0--0-7-5-3-7-0--0-7--7-9-10-7\-|

D#|-------------------------------------------|
A#|-------------------------------------------|
F#|-------------------------------------------|
C#|-(0)-(0)-(0)-(0)-(0)-5-4-(0)-(0)-5-4-0-7\0-| 3x
G#|-(0)-(0)-(0)-(0)-(0)-5-4-(0)-(0)-5-4-0-7\0-|
C#|-(0)-(0)-(0)-(0)-(0)-5-4-(0)-(0)-5-4-0-7\0-|

D#|-------------------------------------------------------------|
A#|-------------------------------------------------------------|
F#|-------------------------------------------------------------|
C#|-0--0-7-5-3-7-0--0-7--7-9-10-8-8-8-8-8-8-8-8-5-5-5-5-7-7-7-7-|
G#|-0--0-7-5-3-7-0--0-7--7-9-10-8-8-8-8-8-8-8-8-5-5-5-5-7-7-7-7-|
C#|-0--0-7-5-3-7-0--0-7--7-9-10-8-8-8-8-8-8-8-8-5-5-5-5-7-7-7-7-|

GUITAR 1:                                  GUITAR 2:
D#|-------------------------------------|  |---------------------------|
A#|-------------------------------------|  |---------------------------|
F#|-------------------------------------|  |------------0---------0--2-|
C#|-(0)-(0)-0--2-(0)-(0)-2--3-(0)-(0)-0-|  |-(0)-(0)-3----(0)-(0)------|
G#|-(0)-(0)------(0)-(0)------(0)-(0)-0-|  |-(0)-(0)------(0)-(0)------|
C#|-(0)-(0)------(0)-(0)------(0)-(0)-0-|  |-(0)-(0)------(0)-(0)------|

D#|---------------------------------|
A#|---------------------------------|
F#|---------------------------------|
C#|-8-8-8-8-8-8-8-8-5-5-5-5-7-7-7-7-|
G#|-8-8-8-8-8-8-8-8-5-5-5-5-7-7-7-7-|
C#|-8-8-8-8-8-8-8-8-5-5-5-5-7-7-7-7-|

GUITAR 1:                                  GUITAR 2:
D#|-------------------------------------|  |---------------------------|
A#|-------------------------------------|  |---------------------------|
F#|-------------------------------------|  |------------0---------0--2-|
C#|-(0)-(0)-0--2-(0)-(0)-2--3-(0)-(0)-0-|  |-(0)-(0)-3----(0)-(0)------|
G#|-(0)-(0)------(0)-(0)------(0)-(0)-0-|  |-(0)-(0)------(0)-(0)------|
C#|-(0)-(0)------(0)-(0)------(0)-(0)-0-|  |-(0)-(0)------(0)-(0)------|

D#|-------------------------------------------------------------|
A#|-------------------------------------------------------------|
F#|-------------------------------------------------------------|
C#|-8-8-8-8-8-8-8-8-8-8-8-8-8-8-8-7-7-7-7-7-7-7-7-7-7-7-7-7-7-7-|
G#|-8-8-8-8-8-8-8-8-8-8-8-8-8-8-8-7-7-7-7-7-7-7-7-7-7-7-7-7-7-7-|
C#|-8-8-8-8-8-8-8-8-8-8-8-8-8-8-8-7-7-7-7-7-7-7-7-7-7-7-7-7-7-7-|

CHORUS:
D#|--------------------------------------------------------------------------|
A#|--------------------------------------------------------------------------|
F#|---------7-7-7-7-7-7-7-7-10-10-10-10-10-10-10-10-10-10-10-----------------|
C#|-0-0-0-0-7-7-7-7-7-7-7-7-10-10-10-10-10-10-10-10-10-10-10-3-3-3-3-3-3-3-3-|
G#|-0-0-0-0-5-5-5-5-5-5-5-5--7--7--7--8--8--8--8--8--8--8--8-3-3-3-3-3-3-3-3-|
C#|-0-0-0-0-0-0-0-0-0-0-0-0--0--0--0--8--8--8--8--8--8--8--8-3-3-3-3-3-3-3-3-|

D#|--------------------------------------------------------------------------|
A#|--------------------------------------------------------------------------|
F#|---------7-7-7-7-7-7-7-7-10-10-10-10-10-10-10-10-10-10-10-----------------|
C#|-0-0-0-0-7-7-7-7-7-7-7-7-10-10-10-10-10-10-10-10-10-10-10-3-3-3-3-5-5-5-5-|
G#|-0-0-0-0-5-5-5-5-5-5-5-5--7--7--7--8--8--8--8--8--8--8--8-3-3-3-3-5-5-5-5-|
C#|-0-0-0-0-0-0-0-0-0-0-0-0--0--0--0--8--8--8--8--8--8--8--8-3-3-3-3-5-5-5-5-|

D#|--------------------------------------------------------------------------|
A#|--------------------------------------------------------------------------|
F#|---------7-7-7-7-7-7-7-7-10-10-10-10-10-10-10-10-10-10-10-----------------|
C#|-0-0-0-0-7-7-7-7-7-7-7-7-10-10-10-10-10-10-10-10-10-10-10-3-3-3-3-3-3-3-3-|
G#|-0-0-0-0-5-5-5-5-5-5-5-5--7--7--7--8--8--8--8--8--8--8--8-3-3-3-3-3-3-3-3-|
C#|-0-0-0-0-0-0-0-0-0-0-0-0--0--0--0--8--8--8--8--8--8--8--8-3-3-3-3-3-3-3-3-|

D#|-----------------------------------------------------------------------|
A#|-----------------------------------------------------------------------|
F#|-----------------------------------------------------------------------|
C#|-5-5-5-5-5-5-5-5-5-5-5-5-5-5-5-8-8-8-8-8-8-8-8-10-10-10-10-10-10-10-10-|
G#|-5-5-5-5-5-5-5-5-5-5-5-5-5-5-5-8-8-8-8-8-8-8-8-10-10-10-10-10-10-10-10-|
C#|-5-5-5-5-5-5-5-5-5-5-5-5-5-5-5-8-8-8-8-8-8-8-8-10-10-10-10-10-10-10-10-|

BRIDGE (SOLO UP TOP):
D#|---------------------------5---5---10--------10--10-13-12-10-8-1010-88-1010~|
A#|------------------------6-5---8---8----8-10-8-------------------------------|
F#|----------------------------------------------------------------------------|
C#|-0--0-7-5-3-7-0--0-7--7-9-10-8-8-8-8-8-8-8-8-8-5-5-5-5-5-5-5-5-5-5-5-3-3-3-3|
G#|-0--0-7-5-3-7-0--0-7--7-9-10-8-8-8-8-8-8-8-8-8-5-5-5-5-5-5-5-5-5-5-5-3-3-3-3|
C#|-0--0-7-5-3-7-0--0-7--7-9-10-8-8-8-8-8-8-8-8-8-5-5-5-5-5-5-5-5-5-5-5-3-3-3-3|

"That's about it, both verses are primarily the same so that's why I didn't tab
the 2nd verse. The ending is just the chorus and more of that cool guitar 
harmony part, and that's a rap! Have fun with it! Take care and God bless!

Comments about this tab

trmcello24 - 2006-05-29

why did you tab this? there already was a perfect tab from Adam K. they are exactly the same.


IExist4You - 2007-04-30

Yea.. but wasn't that for a base guitar? ...

Thanks so much for doing this.. this song is going to be really fun to play :D


Add a comment/correction

Complimentary Christian Ringtones
Dadamobile and CGR have teamed up to bring your favorite Christian artists right to your phone. Sign up today and get 10 complementary ringtones!
Tab Country
Did you know CGR has a sister site w/ country guitar tabs? Well we do! Its called Tab Country. It has a great archive with a lot of country tabs.
Rockin Tabs
Are you looking for a site that has rock guitar tabs? Then Rockintabs.com is the place for you. It is a budding site with many rock guitar tabs. Submit your tab today.
Tab Gallery
Tab Gallery has a compilation of christian, rock, and country tabs all in one place. Come visit us.