Guitar Tabs
song title    band name

Join Us Today!

Don't strum alone...
be a part of the largest online Christian music community. Browse thousands of guitar tabs and chat w/ musicians like yourself.


It's Free!

This tab has been rated a 4.00 out of 5 for accuracy. (2 votes)Sorry, but you must be logged in to rate this tab.
Click here to log-in, or you can click here to register.
(Registration is free)

All songs owned by corresponding publishing company. If you make copies of any song on this website, be sure to report your usage to CCLI.
Submitted by: adorablecows227

"We're Trying" by Sanctus Real from the album The Face of Love
Tabbed by Stell Edling


Intro x2
e|---------------------------------------------------------------------------|
B|---------------------------------------------------------------------------|
G|---------------------------------------------------------------------------|
D|-----------4-4/6----------------------------4-4/6--------------------------|
A|--2-2-2-2-------------------6-6/4---2-2-2-2-----------------6-6/4----------|
E|-------------------4-4-4-4--------------------------4-4-4-4----------------|

Intro Gtr 2: B  F#  G#  E

Comments about this tab

JohnM - 2006-05-05

Basically right, but SR plays in Eb tuning (Eb Bb Gb Db Ab Eb) so in that tuning, all the notes would be one fret higher.


Hanani 14 - 2006-06-15

so do you know the whole song? if so you should tab it! nice tab.


Naragrath - 2006-11-02

Good job on the intro, but here is the rest of the song (or at least most of it).
The second guitar plays:

E--------------------
A--------------------
G-4-x----------------
D-4-x-4-x-6-6-6-x-6-6
A-2-x-4-x-6-6-6-x-6-6
E-----2-x-4-4-4-x-4-4

And then the verse is:
Strum the B F# G# E strings and then for the prechorus:

E--------------------------------
A--------------------------------
G-------------------------------- () = Emphasis - Repeat as needed
D-8-8-8-8--(8)(8)-9-9-9-9--(9)(9)
A-6-6-6-6--(6)(6)-7-7-7-7--(7)(7)
E--------------------------------

Chorus
E------------------------
A------------------------
G------------------------
D-8-8-8-8-8-8-9-9-9-9-9-9 Repeat As Needed
A-6-6-6-6-6-6-7-7-7-7-7-7
E------------------------
Hope that helps.
JoshuaDC


Add a comment/correction

Complimentary Christian Ringtones
Dadamobile and CGR have teamed up to bring your favorite Christian artists right to your phone. Sign up today and get 10 complementary ringtones!
Tab Country
Did you know CGR has a sister site w/ country guitar tabs? Well we do! Its called Tab Country. It has a great archive with a lot of country tabs.
Rockin Tabs
Are you looking for a site that has rock guitar tabs? Then Rockintabs.com is the place for you. It is a budding site with many rock guitar tabs. Submit your tab today.
Tab Gallery
Tab Gallery has a compilation of christian, rock, and country tabs all in one place. Come visit us.