Guitar Tabs
song title    band name

Join Us Today!

Don't strum alone...
be a part of the largest online Christian music community. Browse thousands of guitar tabs and chat w/ musicians like yourself.


It's Free!

This tab has been rated a 2.67 out of 5 for accuracy. (3 votes)Sorry, but you must be logged in to rate this tab.
Click here to log-in, or you can click here to register.
(Registration is free)

All songs owned by corresponding publishing company. If you make copies of any song on this website, be sure to report your usage to CCLI.
Submitted by: Hawk_Nelson89

Ok im pretty sure this is it. The tuning is Drop D.

* = Palm Mute
Intro

e---------------3--3------------------
b---------------------3---------------
g--------5---------------5------------ x2
d------5---5--------------------------
a---3---------------------------------
d-------------------------------------

Intro 2 (This is also played during the chorus)

e---------------------------------------------------------
b---------------------------------------------------------
g---55555555--------------------------------5-------------
d---55555555--77777777--33333333--55555555--3-------------
a---33333333--77777777--33333333--55555555--3-------------
d-------------77777777--33333333--55555555----------------

The first part of the verses is just the bass, but then you mute the same chords
of the chorus, except the chord that you hit at the last part of the chorus.

Then the song goes like this during the verses-


e----------------------------------------------
b----------------------------------------------  Listen To the song to see how
g-------55---55---77---55----------------------  many times you repeat this
d----------------------------------------------  during the verse.
a----------------------------------------------
d----------------------------------------------
        **


 Thats pretty much it except for some picking before the chorus, i havent
figured out anything that sounds good yet, so keep checking back ill
eventually figure it out. Hope you like this tab!! Please Rate! God Bless!!      

Comments about this tab

No comments/corrections found. Add your own

Complimentary Christian Ringtones
Dadamobile and CGR have teamed up to bring your favorite Christian artists right to your phone. Sign up today and get 10 complementary ringtones!
Tab Country
Did you know CGR has a sister site w/ country guitar tabs? Well we do! Its called Tab Country. It has a great archive with a lot of country tabs.
Rockin Tabs
Are you looking for a site that has rock guitar tabs? Then Rockintabs.com is the place for you. It is a budding site with many rock guitar tabs. Submit your tab today.
Tab Gallery
Tab Gallery has a compilation of christian, rock, and country tabs all in one place. Come visit us.