Guitar Tabs
song title    band name

Join Us Today!

Don't strum alone...
be a part of the largest online Christian music community. Browse thousands of guitar tabs and chat w/ musicians like yourself.


It's Free!

Audio Adrenaline - Secret

This tab has not yet been rated for accuracy.Sorry, but you must be logged in to rate this tab.
Click here to log-in, or you can click here to register.
(Registration is free)

All songs owned by corresponding publishing company. If you make copies of any song on this website, be sure to report your usage to CCLI.
Secret
by Audio Adrenaline
tabbed by Justin Huddleston


Okay, this is as close as I could get it.  I only got part of the solo, but
it should be enough to get you started


Dropped D Tuning:
Low to High:(D-A-D-G-B-E)



Intro


--------------------------------------------------------------------------
--------------------------------------------------------------------------
--------------------------------------------------------------------------
--------------------------------------------------------------------------
--------------------------------------------------------------------------
2/9 9 x 9 x 9 9\2 2 x 2 x 2 2/9 9 x-9-9\2-2-x-2---------------------------
Riff A-2 times
--------------------------------------------------------------------------
--------------------------------------------------------------------------
--------------------------------------------------------------------------
--------------------------------------------------------------------------
2 9 9 x 9 x 9 9\2 2 x 2 x 2 2/9 9 x 9 9\2 2 x 2---------------------------
2/9 9 x 9 x 9 9\2 2 x 2 x 2 2/9 9 x 9 9\2 2 x 2---------------------------


Verse 1
I once was lost in a foaming, roaming rabid sea
then blooms blossomed, changed my outlook, now I've been set free
---------------------------------------
---------------------------------------
---------------------------------------
9/12-12-12-12-12-12-12-9---------------
---------------------------------------
---------------------------------------
I once was sinking in a quarry of quicksand
somebody noticed and they offered me a hand
*I wanna tell it, I wanna say it, I wanna show it
Want you  to know it yea


*At the asterick begin this riff-4 times(Riff B)
-----------------------------------------
-----------------------------------------
-----------------------------------------
12^---------9^---------------------------
-----------------------------------------
-----------------------------------------


(^ is a bend up about 1/4 step)


Chorus-Riff A-4 times
I've got a secret and I cannot keep it
I've got a secret and i cannot,cannot keep it


Verse 2
There is a God and He's alive and keeps me well
that is the secret Mrs. Mademoiselle
*(begin riff B) I want to tell it, i wanna say it, i want to show it
Want you to know it yea
Chorus-Riff A-10 times
I've got a secret and I cannot keep it
i've got a secret and I cannot keep it
I got a Secret to the Universe,
Until you hear it , you won't know what its worth
I've got a secret
Solo-I think (asmuch as I can anyway)
--------------------------------------------------------------------------
-------------------------------------------------------------19trill------
-----------------------------------------------9--------------------------
9^vvvvvvvv9-9-10-12-10-9-10-9-10----9vvvvvvvv-----------------------------
--------------------------------------------------------------------------
--------------------------------------------------------------------------


Chorus-15 times-Riff A
I've got a secret and I cannot keep it
I've got a secret and i cannot keep it
I got a secret to the Universe
Until you hear it, you won't know what it's worth
I've got a secret
I've got a secret, yea
I've got a secret to the universe
ah, would you like to hear it
would you lke to hear it
would you like to hear it
I've got a secret


okay, that's as far as I can get it
If you have any corrections please email me at sbg4him@hotmail.com
Copyright 1996 The ForeFront Communications Group, Inc., 201 Seaboard Lane,
Franklin, TN 37067.   All Rights Reserved. International Copyright Secured.

Comments about this tab

BlackAttack1287 - 2005-06-29

It seems to me that your Riff A should go:

D --------------------------------------------
A --------------------------------------------
D -7-9-9-7-9---0-2-2-0-2--7-9-9-7-9--0-2-2-0-2

then:

D --------------------------------------------
A -7-9-9-7-9---0-2-2-0-2--7-9-9-7-9--0-2-2-0-2
D -7-9-9-7-9---0-2-2-0-2--7-9-9-7-9--0-2-2-0-2

It just sounds more like the song, I think. Second opinion anyone?


tedlenoski3 - 2010-12-19

BlackAttack, I think you are right. On the pre-chorus, I think Blair is using a highly volatile rotary wah, cranked all the way up. Anybody back me on that?


Add a comment/correction

Complimentary Christian Ringtones
Dadamobile and CGR have teamed up to bring your favorite Christian artists right to your phone. Sign up today and get 10 complementary ringtones!
Tab Country
Did you know CGR has a sister site w/ country guitar tabs? Well we do! Its called Tab Country. It has a great archive with a lot of country tabs.
Rockin Tabs
Are you looking for a site that has rock guitar tabs? Then Rockintabs.com is the place for you. It is a budding site with many rock guitar tabs. Submit your tab today.
Tab Gallery
Tab Gallery has a compilation of christian, rock, and country tabs all in one place. Come visit us.