Guitar Tabs
song title    band name

Join Us Today!

Don't strum alone...
be a part of the largest online Christian music community. Browse thousands of guitar tabs and chat w/ musicians like yourself.


It's Free!

This tab has been rated a 4.67 out of 5 for accuracy. (3 votes)Sorry, but you must be logged in to rate this tab.
Click here to log-in, or you can click here to register.
(Registration is free)

All songs owned by corresponding publishing company. If you make copies of any song on this website, be sure to report your usage to CCLI.
Submitted by: youngster

I apologize for submitting this twice, but I realized that I forgot to explain
why I'm submitting a song that' already posted.  I would say that my tab is
simply more complete.  It has the parts that the other tab was missing, etc.
If you end up posting this though, please disregard the first submission and
use this one.  Thanks.


Tuning: F A# D# G# C F
(Or you can capo 1, but I personally don't like to capo electrics)

Key:
<1>: harmonic
h: hammer on
/: slide up
\: slide down
*: palm mute

Intro (solo)
--------------------------       --------------------------
--------------------------       --------------------------
-------------------------- (x3)  --------------------------
--------------------------       -------------------<2.5>--
-<3.5>-<3.5>-<3.5>-<3.5>--       -<2.5>-<2.5>-<2.5>--------
--------------------------       --------------------------

--------------------------       -----7h8------------------
--------------------------       -7h8----------------------
-------------------------- (x3)  --------------------------
--------------------------       --------------------------
-<3.5>-<3.5>-<3.5>-<3.5>--       --------------------------
--------------------------       --------------------------

Intro (rhythm)
-------------------------------------------------
-------------------------------------------------
-9-9--5-5-------7-7--9-9--5-5--------------------
-9-9--5-5--7-7--7-7--9-9--5-5--7-7-7-7-7-7-7-7---
-7-7--3-3--7-7--5-5--7-7--3-3--7-7-7-7-7-7-7-7---
-----------5-5-----------------5-5-5-5-5-5-5-5---


Prechorus (solo)
---------------------------------7-------7-------7---10-8-7----
-------------------------------8---8---8---8---8---8--------8--
-7/9\7--7/9\7--7/9\7--7/9\7--9-------9-------9-----------------
---------------------------------------------------------------
---------------------------------------------------------------
---------------------------------------------------------------

---------------------------------7-------7-------7-------7-----
-------------------------------8---8---8---8---8---8---9---8---
-7/9\7--7/9\7--7/9\7--7/9\7--9-------9-------9-------9---------
---------------------------------------------------------------
---------------------------------------------------------------
---------------------------------------------------------------

Prechorus (rhythm)
This part is hard to explain with a tab. Also I'm doing this by ear,
so it might not be correct, so feel free to correct. But basically,
you want to play the following chord the whole time:
--8----
--8----
--9---- (C# chord)
--10---
--10---
--8----

Keeping this fingering, play different notes of the chord like so.
------------------------
-------8-8--------------
-------9-9-------9--9--- (x2)
-10-10-----10-10-10-10--
-10-10-----10-10--------
-8--8------8--8---------
 *  *      *  *

----------------------------------
----------------------------------
----------------------------------
-2-2-2-2-2-2-2-2-5-5-5-5-5-5-5-5--
-2-2-2-2-2-2-2-2-5-5-5-5-5-5-5-5--
-0-0-0-0-0-0-0-0-3-3-3-3-3-3-3-3--

------------------------
-------8-8--------------
-------9-9-------9--9--- (x2)
-10-10-----10-10-10-10--
-10-10-----10-10--------
-8--8------8--8---------
 *  *      *  *

----------------------------------
----------------------------------
----------------------------------
-2-2-2-2-2-2-2-2-7-7-7-7-7-7-7-7--
-2-2-2-2-2-2-2-2-7-7-7-7-7-7-7-7--
-0-0-0-0-0-0-0-0-5-5-5-5-5-5-5-5--


Chorus
------------------------------------------------------------------
------------------------------------------------------------------
-----------------7-7-7-7-7-7-7-7-----------------5-5-5-5-5-5-5-5--
-5-5-5-5-5-5-5-5-7-7-7-7-7-7-7-7-2-2-2-2-2-2-2-2-5-5-5-5-5-5-5-5--
-5-5-5-5-5-5-5-5-5-5-5-5-5-5-5-5-2-2-2-2-2-2-2-2-3-3-3-3-3-3-3-3--
-3-3-3-3-3-3-3-3-----------------0-0-0-0-0-0-0-0------------------

------------------------------------------------------------------
------------------------------------------------------------------
-----------------7-7-7-7-7-7-7-7-4-4-4-4-4-4-4-4-5-5-5-5-5-5-5-5--
-2-2-2-2-2-2-2-2-7-7-7-7-7-7-7-7-4-4-4-4-4-4-4-4-5-5-5-5-5-5-5-5--
-2-2-2-2-2-2-2-2-5-5-5-5-5-5-5-5-2-2-2-2-2-2-2-2-3-3-3-3-3-3-3-3--
-0-0-0-0-0-0-0-0--------------------------------------------------


Bridge (solo)
------------------------------
-10-12------------------------
-12-12-----9--12-12/14-11-12--
--------12-12-12--------------
------------------------------
------------------------------

Bridge (rhythm)
----        ----        ----
----        ----        ----
---- (hold) -5-- (hold) ---- (x32) [4 measures]
-5--        -5--        -5--
-5--        -3--        -5--
-3--        ----        -3--

----        ----
----        ----
-5-- (hold) ---- (x64) [8 measures]
-5--        -5--
-3--        -5--
----        -3--


Chord Overview
Intro: Fm C# A#m D# Fm C# A#m
Prechorus: C# Fm G# C# Fm A#m
Chorus: G# D# Fm C# Fm D# Cm C#
Bridge: G# D# G# D# G#

I know there's little bits and pieces I didn't tab,
but for the most part this is it.  Enjoy.

Comments about this tab

youngster - 2006-04-28

Correction on the intro.

Intro (solo)
------------------ --------------------------
------------------ --------------------------
------------------ (x3) --------------------------
------------------ -------------------<2.2>--
-<3>-<3>-<3>-<3>-- -<2.2>-<2.2>-<2.2>--------
------------------ --------------------------
*harmonic located *harmonic located 1/5 the
on the 3rd fret distance between the 2nd
and 3rd frets

------------------ -----7h8------------------
------------------ -7h8----------------------
------------------ (x3) --------------------------
------------------ --------------------------
-<3>-<3>-<3>-<3>-- --------------------------
------------------ --------------------------


youngster - 2006-04-28

Blah. For some reason the spacing didn't show as I wanted.

Intro (solo)
------------------
------------------
------------------ (x3)
------------------
-<3>-<3>-<3>-<3>--
------------------
*harmonic located on the 3rd fret

--------------------------
--------------------------
--------------------------
-------------------<2.2>--
-<2.2>-<2.2>-<2.2>--------
--------------------------
*harmonic located 1/5 the distance between the 2nd and 3rd frets

------------------
------------------
------------------ (x3)
------------------
-<3>-<3>-<3>-<3>--
------------------

-----7h8------------------
-7h8----------------------
--------------------------
--------------------------
--------------------------
--------------------------


RonaldB - 2006-05-16

Hi the intro is a little bit of.

It has to be this. (with the capo on 1st fret)
e|-<12>-<12>-<12>-<12>-<12>-<12>-<12>-<12>-|-<12>-<12>-<12>-<12>-------<7>-<12>-
B|-----------------------------------------|--------------------<7>-<7>---------


e|-<12>-<12>-<12>-<12>-<12>-<12>-<12>-<12>-|-<12>-<12>-<12>-<12>----7h8-----
B|-----------------------------------------|--------------------7h8---------


neuro182 - 2006-05-19

i tried

e|---------------------| e|-----------------
b|---------------------| b|-----------------
g|---------------------| g|---------<4>-<4>-
D|---------------------| 3x then D|-<4>-<4>---------
A|-<4>-<4>-<4>-<4>-<4>-| A|-----------------
E|---------------------| E|-----------------

then

e|---------------------| e|-----8-9---------
b|---------------------| b|-8-9-------------
g|---------------------| g|-----------------
D|---------------------| 3x then D|-----------------
A|-<4>-<4>-<4>-<4>-<4>-| A|-----------------
E|---------------------| E|-----------------

someone correct me if im wrong. the key is still in G#.


mabelis - 2006-05-24

Can someone telle me how to play that "harmonic" part?


youngster - 2006-06-07

Please view my correction for the intro. I can guarantee it's 100% correct. Just remember that reading harmonics and regular tab is not the same; i.e <3> means on the 3rd METAL fret, like you're playing the harmonic right over the bar itself. And once again, my tab is based on capo 1 or the 1/2 step up tuning. You can't play the harmonics if you don't do this.


friendlyfatman - 2006-06-10

i have to agree with ronnyb...the cappo on the first fret is the one......


youngster - 2006-08-11

Yes, capo 1 = F# tuning. The tab is relative to that.


youngster - 2006-08-11

F* not F# hehe


unitedfan - 2006-10-06

i think harmonic is that you have to slightly touch the metal bar of the number of the fret.its always right to it. dat means next..dun press it.but slightly touch it .... the metal bar is the bar that space the nuber of fret.. i dunno if you get that ..but it was hard to explain.


Sauleth - 2006-10-19

Ok, these are all wrong. I play this song as follows...

-----------------------------------------------------------------(5)---
-(7)-(7)-(7)-(7)-(7)-(7)-(7)-(7)-(7)-(7)-(7)-(7)-(7)-(5)-(5)-(5)-------
-----------------------------------------------------------------------
-----------------------------------------------------------------------
-----------------------------------------------------------------------
-----------------------------------------------------------------------

-----------------------------------------------------------------------
-(7)-(7)-(7)-(7)-(7)-(7)-(7)-(7)-(7)-(7)-(7)-(7)-(7)-(5)-(5)-(5)-(5)---
-----------------------------------------------------------------------
-----------------------------------------------------------------------
-----------------------------------------------------------------------
-----------------------------------------------------------------------

NOTE: The song is played in some sort of flat, i believe it's Ab. So you need to either tune your guitar down half a step (ie E flat) or play the song in A.

The Pre-chorus bit is a little different than stated on here too but hey play whatever sounds good i say.

Saul


guitarist88 - 2006-11-14

chords are in Ab chords...
get it all wrong


jakobweiq - 2007-03-28

brothers, u all gt it wrong..

if u watch the DVD carefully, MGC is playing the harmonics on the 5th and 7th frets.. so, i deduce that he tuned his white falcon 1/2 step down. (Eb, Ab, Db, Gb, Bb, eb) thruout..

so the correct intro r:

eb|-----------------<5>//--<7>//--|-----------------------9h10-----------|
Bb|------<5>//////----------------|---<5>//////------9h10----------------|
Gb|-------------------------------|--------------------------------------|
Db|-------------------------------|--------------------------------------|

*// = im too lazy to type out the actually no. of downstrokes.. so... (^_^)


jakobweiq - 2007-03-28

brothers, u all gt it wrong..

if u watch the DVD carefully, MGC is playing the harmonics on the 5th and 7th frets.. so, i deduce that he tuned his white falcon 1/2 step down. (Eb, Ab, Db, Gb, Bb, eb) thruout..

so the correct intro r:

eb|------------------------<7>//--|-----------------------9h10-----------|
Bb|------<7>//////--<5>//---------|---<7>//////------9h10----------------|
Gb|-------------------------------|--------------------------------------|
Db|-------------------------------|--------------------------------------|

*// = im too lazy to type out the actually no. of downstrokes.. so... (^_^)


Add a comment/correction

Complimentary Christian Ringtones
Dadamobile and CGR have teamed up to bring your favorite Christian artists right to your phone. Sign up today and get 10 complementary ringtones!
Tab Country
Did you know CGR has a sister site w/ country guitar tabs? Well we do! Its called Tab Country. It has a great archive with a lot of country tabs.
Rockin Tabs
Are you looking for a site that has rock guitar tabs? Then Rockintabs.com is the place for you. It is a budding site with many rock guitar tabs. Submit your tab today.
Tab Gallery
Tab Gallery has a compilation of christian, rock, and country tabs all in one place. Come visit us.