Guitar Tabs
song title    band name

Join Us Today!

Don't strum alone...
be a part of the largest online Christian music community. Browse thousands of guitar tabs and chat w/ musicians like yourself.


It's Free!

This tab has been rated a 3.75 out of 5 for accuracy. (4 votes)Sorry, but you must be logged in to rate this tab.
Click here to log-in, or you can click here to register.
(Registration is free)

All songs owned by corresponding publishing company. If you make copies of any song on this website, be sure to report your usage to CCLI.
Submitted by: Addero

Showbread
Welcome To Plainfield, Tobe Hooper
No Sir, Nihilism Is Not Practical
 2006 Tooth and Nail / Solid State
Tabbed By: Jeremy Waterman
Tuning - Standard: EADGBE

Yay, I finally finished this one! I took so long trying to finish it up because
I wouldn't stop playing the solos. Anyways, there's already one on CGR, but
mine's a lot different from the other one. Mmhmm. I think mine's right, but I
havn't been tabbing long, so I don't know. You decide. Props to other bud,
though. Love letters, hate mail, and corrections can be sent to
addero@hotmail.com

Legend:
/  Slide Up
\  Slide Down
.  Palm Mute
b  Bend
h  Hammer On
p  Pull Off
x\ Pick Slide

Intro: (First effects and drum)
E[-----------------]
B[-----------------]
G[-----------------]
D[-----8-8-7-7-5-5-]
A[-7-7-6-6-5-5-3-3-] (x4)
E[-5-5-------------]

Intro Solo:
E[------------------------------------------]
B[------------------------------------------]
G[-9-9-7p5h7-7--------5--9-9-7p5--9--99-99b-]
D[---------------7--57----------7-----------]
A[------------------------------------------]
E[------------------------------------------]

Verse:
 No Guitar in verse, pretty much everything but that.
 I'm currently working on the bass for this, too.

Pre-Chorus 1:
E[-----------------------------------------------------------------]
B[-----------------------------------------------------------------]
G[-----------------8-8-8-8-8-8-8-8-7-7-7-7-7-7-7-7-5-5-5-5-5-5-5-5-]
D[-7-7-7-7-7-7-7-7-8-8-8-8-8-8-8-8-7-7-7-7-7-7-7-7-5-5-5-5-5-5-5-5-]
A[-7-7-7-7-7-7-7-7-6-6-6-6-6-6-6-6-5-5-5-5-5-5-5-5-3-3-3-3-3-3-3-3-]
E[-5-5-5-5-5-5-5-5-------------------------------------------------]

E[-----------------------------------------------------------------]
B[-----------------------------------------------------------------]
G[-----------------8-8-8-8-8-8-8-8-7-7-7-7-7-7-7-7-8-8-8-8-9-9-9-9-]
D[-7-7-7-7-7-7-7-7-8-8-8-8-8-8-8-8-7-7-7-7-7-7-7-7-8-8-8-8-9-9-9-9-]
A[-7-7-7-7-7-7-7-7-6-6-6-6-6-6-6-6-5-5-5-5-5-5-5-5-6-6-6-6-7-7-7-7-]
E[-5-5-5-5-5-5-5-5-------------------------------------------------]

Chorus:
E[---------------------------------------------------------]
B[---------------------------------------------------------]
G[---------------------------------------------------------]
D[-7-7-7-\-5-5-5--5-5-\-2-------/5-------/7---/8---\5---/8-]
A[-7-7-7-\-5-5-5--5-5-\-2-------/5-------/7---/8---\5---/8-]
E[-5-5-5-\-3-3-3--3-3-\-0-------/3-------/5---/6---\7---/6-]

E[------------------------------------------]
B[------------------------------------------]
G[------------------------------------------]
D[-\2-------/5-------/7---/8---\5---/8---\2-]
A[-\2-------/5-------/7---/8---\5---/8---\2-]
E[-\0-------/3-------/5---/6---\7---/6---\0-]

Post-Chorus:
E[--------------------------------]
B[--------------------------------]
G[--------------------------------]
D[-2-22---22-22---22-22--22/8\7\5-]
A[-2-22---22-22---22-22--22/8\7\5-]
E[-0-00---00-00---00-00--00/6\5\3-]
pm    .       .       .

E[---------------------------------]
B[---------------------------------]
G[---------------------------------]
D[-2-22---22-22---22-22--22/8\7--7-]
A[-2-22---22-22---22-22--22/8\7--7-] (let ring)
E[-0-00---00-00---00-00--00/6\5--5-]
pm    .       .       .

Verse:
 First only drums, then bass comes in, then guitar:
E[----------------------------------------------------]
B[----------------------------------------------------]
G[----------5/8---------5/8---------5/8---------5/8\7-]
D[----------5/8---------5/8---------5/8---------5/8\7-]
A[----------3/6---------3/6---------3/6---------3/6\5-] (let ring)
E[----------------------------------------------------]
pm          . .         . .         . .         . .

Pre-Chorus 2:
E[-----------------]
B[-----------------]
G[-----------------]
D[-----8-8-7-7-5-5-]
A[-7-7-6-6-5-5-3-3-] (x4)
E[-5-5-------------]

Chorus:
E[------------------------]
B[------------------------]
G[------------------------]
D[-7-7-7-\-5-5-5--5-5-\-2-]
A[-7-7-7-\-5-5-5--5-5-\-2-] (let ring)
E[-5-5-5-\-3-3-3--3-3-\-0-]

Solo:
E[----------------------------------------]
B[-13p12p10--13p12p10--13p12p10--13p12----]
G[----------------------------------------]
D[------------------------------------x\--]
A[------------------------------------x\--]
E[----------------------------------------]

E[---------------------------------]
B[---------------------------------]
G[-9-9-7p5h7-7--------5--9-9-7p5---]
D[---------------7--57----------77-]
A[---------------------------------] (let ring)
E[---------------------------------]

E[-----------------------------------------12-]
B[-10-10-12-13-15-15-13-12-10---10-10-12-13---]
G[--------------------------------------------]
D[--------------------------------------------]
A[--------------------------------------------]
E[--------------------------------------------]

E[-12b-1212b-1212b-12b-1212b-1212b-15h20p18-15h20p18-15-----]
B[------------------------------------------------------15b-]
G[----------------------------------------------------------]
D[----------------------------------------------------------]
A[----------------------------------------------------------]
E[----------------------------------------------------------]

E[----1212-1010-8---------8h10-12b12b-10\8----]
B[-15------------10--8h10------------------10-]
G[--------------------------------------------]
D[--------------------------------------------]
A[--------------------------------------------]
E[--------------------------------------------]

Chorus:
E[---------------------------------------------------------]
B[---------------------------------------------------------]
G[---------------------------------------------------------]
D[-7-7-7-\-5-5-5--5-5-\-2-------/5-------/7---/8---\5---/8-]
A[-7-7-7-\-5-5-5--5-5-\-2-------/5-------/7---/8---\5---/8-]
E[-5-5-5-\-3-3-3--3-3-\-0-------/3-------/5---/6---\7---/6-]

E[------------------------------------------]
B[------------------------------------------]
G[------------------------------------------]
D[-\2-------/5-------/7---/8---\5---/8---\2-]
A[-\2-------/5-------/7---/8---\5---/8---\2-]
E[-\0-------/3-------/5---/6---\7---/6---\0-]

Post-Chorus:
E[--------------------------------]
B[--------------------------------]
G[--------------------------------]
D[-2-22---22-22---22-22--22/8\7\5-]
A[-2-22---22-22---22-22--22/8\7\5-] (x2)
E[-0-00---00-00---00-00--00/6\5\3-]
pm    .       .       .

Outro:
E[--------------------------------]
B[--------------------------------]
G[--------------------------------]
D[-2-2---2-2-2---2-2-2--2-2/8\7\5-]
A[-2-2---2-2-2---2-2-2--2-2/8\7\5-]
E[-0-0---0-0-0---0-0-0--0-0/6\5\3-]
pm   .       .       .

E[----------------------------------]
B[----------------------------------]
G[----------------------------------]
D[-2-2---2-2-2---2-2-2--2-2/8\7\5\2-]
A[-2-2---2-2-2---2-2-2--2-2/8\7\5\2-] (let ring)
E[-0-0---0-0-0---0-0-0--0-0/6\5\3\0-]
pm   .       .       .

Comments about this tab

No comments/corrections found. Add your own

Complimentary Christian Ringtones
Dadamobile and CGR have teamed up to bring your favorite Christian artists right to your phone. Sign up today and get 10 complementary ringtones!
Tab Country
Did you know CGR has a sister site w/ country guitar tabs? Well we do! Its called Tab Country. It has a great archive with a lot of country tabs.
Rockin Tabs
Are you looking for a site that has rock guitar tabs? Then Rockintabs.com is the place for you. It is a budding site with many rock guitar tabs. Submit your tab today.
Tab Gallery
Tab Gallery has a compilation of christian, rock, and country tabs all in one place. Come visit us.