Guitar Tabs
song title    band name

Join Us Today!

Don't strum alone...
be a part of the largest online Christian music community. Browse thousands of guitar tabs and chat w/ musicians like yourself.


It's Free!

Five Iron Frenzy - Four-Fifty-One

This tab has not yet been rated for accuracy.Sorry, but you must be logged in to rate this tab.
Click here to log-in, or you can click here to register.
(Registration is free)

All songs owned by corresponding publishing company. If you make copies of any song on this website, be sure to report your usage to CCLI.
Four-fifty-one
Five Iron Frenzy
c 2000 5 Minute Walk Records

tabbed by Andrew Schell   sonnyschell@hotmail.com
*NOTE* lyrics under a bar do not correspond exactly with notes above.
       It's the best I could do with text.

INTRO
f C A Bb (x4) (power chords)

VERSE (ska feel)
f                     C             Dm  Bb
Here the man draws the line for separa--tion. (Old Vision).
f                         C             Dm  Bb
Watch the man build up his walls for isola--tion. (You make division).
f
Walk no mile,
C
I'm sick and tired,
   Dm                     Bb
of all the cowards at the radio station.
f            C
No cathartic plot to thicken,
Dm
to quote the vernacular,
Bb
I'd say that you're chicken.

CHORUS riff 1
    A   D   C       f           A   D   C  Palm Mute - -|
e|--------------------------------------------------------------|
B|--------------------------------------------------------------|
G|--------------------------------------------------------------|
D|------7---5-5-5-5-10-10-10-10-----7---------------------------|
A|--7---5---3-3-3-3-8--8--8--8--7---5---10-10-10-10-10-10-10-10-|
E|--5---------------------------5-------8--8--8--8--8--8--8--8--|
          We're going nowhere,         and it's happening fast,
          a dim future,                and a darker past.

CHORUS riff 2
    bb  a    g         f          bb    a             f    g
e|------------------------------------------------------------------|
B|------------------------------------------------------------------|
G|--15--14---12--------10-10-10---15----14------------10---12-12-12-|
D|--x---x----x---------x--x--x----x-----x-------------x----x--x--x--|
A|--13--12---10--------8--8--8----13----12------------8----10-10-10-|
E|------------------------------------------------------------------|
    Somewhere away from here, from past mistakes they often learn,
    at Fahrenheit 451,       you close your doors and let it burn.

Repeat INTRO

VERSE 2
f                C
Pharisees in the church,
                 Dm Bb
time to take a vaca-tion. (Emancipation).
f                   C                          Dm Bb
Pharisees think the world comes to them for salva-tion. (Booyah).

CHORUS riff 1 and 2

BRIDGE riff A (x3)
    Palm mute - - - - - - - - - - - - - - - - - - - - - - - - - - - - - - -|
e|---------------------------------------------------------------------------|
B|---------------------------------------------------------------------------|
G|---------------------------------------------------------------------------|
D|---------------------------------------------------------------------------|
A|--10-10-10-10-10-10-10-10-5-5-5-5-5-5-5-5-8-8-8-8-8-8-8-8-3-3-3-3-3-3-3-3--|
E|---------------------------------------------------------------------------|
The radio is preaching the candy coated goo,
The record companies and the TV too.
No one rocks the boat, terrified of trouble,
Can't tamper with the walls of their sterile Christian bubble.
It was never your point to get people saved,
You pad yourself with fluff just because you're afraid.

BRIDGE riff B
    Palm mute - - - - - - - - - - - - - - -|
e|---------------------------------------------------------------------------|
B|---------------------------------------------------------------------------|
G|---------------------------------------------------------------------------|
D|----------------------------------------------------------5-5-5-5-5-5-5-5--|
A|--10-10-10-10-10-10-10-10-5-5-5-5-5-5-5-5-8-8-8-8-8-8-8-8-3-3-3-3-3-3-3-3--|
E|---------------------------------------------------------------------------|
I'm not afraid to point the finger now, the choir's so used to the preaching 
anyhow.

CHORUS riff 1

then
CHORUS riff 3
   Palm mute - - - - - - - - - - - - - - - - - - - - - - - - - - - - - - - - 
-|
e|-----------------------------------------------------------------------------|
B|-----------------------------------------------------------------------------|
G|-----------------------------------------------------------------------------|
D|-----------------------------------------------------------------------------|
A|-13-13-12-12-12-12-12-10-10-8-8-8-8-8-8-13-13-12-12-12-12-12-8-8-10-10-10-10-|
E|-----------------------------------------------------------------------------|
    Some-where         away from here,    from past mistakes they often 
learn,

   Palm mute - - - - - - - - - - - - - - - - - - - - - - - - - - -|
e-------------------------------------------------------------------------------
B-------------------------------------------------------------------------------
G-----------------------------------------------------------17-17-17-17-17-17-17
D-----------------------------------------------------------x--x--x--x--x--x--x-
A-13-13-12-12-12-12-12-10-10-888888-13-13-12-12-12-12-12-88-15-15-15-15-15-15-15
E-------------------------------------------------------------------------------
at Fahrenheit     Four-Fifty-One,       you close your doors and let it burn.

CHORUS riff 2

INTRO
End on f

_____________________________________________

CHORDS:
Verse (ska feel)		Intro and Chorus
    f    C    Dm  Bb		    f    C or   A   Bb  D
e---8----8----5---6---		e--------------------------
B---10---8----6---6---		B--------------------------
G---10---9----7---7---		G---10------5-----------7--
D---10---10---7---8---		D---10---10-5---7---8---7--
A---8----10---5---8---		A---8----10-3---7---8---5--
E--------8--------6---		E--------8------5---6------

The number of notes may be different than what is tabbed but the general
form is there.
So improvise and listen to the cd for the how to actually play it.
Corrections, comments, or suggestions:  sonnyschell@hotmail.com

Comments about this tab

No comments/corrections found. Add your own

Complimentary Christian Ringtones
Dadamobile and CGR have teamed up to bring your favorite Christian artists right to your phone. Sign up today and get 10 complementary ringtones!
Tab Country
Did you know CGR has a sister site w/ country guitar tabs? Well we do! Its called Tab Country. It has a great archive with a lot of country tabs.
Rockin Tabs
Are you looking for a site that has rock guitar tabs? Then Rockintabs.com is the place for you. It is a budding site with many rock guitar tabs. Submit your tab today.
Tab Gallery
Tab Gallery has a compilation of christian, rock, and country tabs all in one place. Come visit us.