Guitar Tabs
song title    band name

Join Us Today!

Don't strum alone...
be a part of the largest online Christian music community. Browse thousands of guitar tabs and chat w/ musicians like yourself.


It's Free!

This tab has been rated a 4.67 out of 5 for accuracy. (3 votes)Sorry, but you must be logged in to rate this tab.
Click here to log-in, or you can click here to register.
(Registration is free)

All songs owned by corresponding publishing company. If you make copies of any song on this website, be sure to report your usage to CCLI.
Submitted by: EPaulson

The other tab doesnt have the whole song for both guitars, so here it is:

Copeland- No One Really Wins- Copyright 2005- The Militia Group

Drop D Tuning

Guitar 2-Part 1
 e]---------------------------------------------------------------------------------[
B]---------------------------------------------------------------------------------[
G]---------------------------------------------------------------------------------[
D]---------------------------------------------------------------------------------[
A]---------------------9-9-10-10-12-12-12-12------(x2)-----------------------------[
D]----7/9-9-9-9-9-9----------------------------------------------------------------[

Guitar 1-Part1( right after guitar 2 part one)
e]-----------------------------------------------------------------------------------[
B]-------10---12--12--10--10--10------------10--12-12--10--10—10------------------[
G]----11---11----------------------------11-----------------------(x2)---------------[
D]-----------------------------------------------------------------------------------[
A]-----------------------------------------------------------------------------------[
D]-----------------------------------------------------------------------------------[
These notes are the notes they play during that riff. The way the play them varies each time the riff
 goes. Listen to the song for the exact rhythm. This is the rhythm for the very first time.

Guitar 2-Part2 (during guitar1 part1)
e]----------------------------------------------------------------------------------[
B]----------------------------------------------------------------------------------[
G]----------------------------------------------------------------------------------[
D]---5---5---5-5----9--7-7---7-9-7-------------------------------------------------[
A]---5---5---5-5----9--7-7---7-9-7- -(x2)--------------------------------------------[
D]---5---5---5-5----9--7-7---7-9-7------------------------------------------------- [

Repeat these for the whole first verse.

Chorus 1:
Nothing

Verse 2: Same as Verse 1

Chorus 2: Guitar 1 (1:30)
e]----------------------------------------------------------------------------------[
B]-----15-15-15-15-15-15-15-14 (x3) then 15-15-15-15-15-15-15-15--17-17-17-17------[
G]----------------------------------------------------------------------------------[
D]----------------------------------------------------------------------------------[
A]----------------------------------------------------------------------------------[
D]----------------------------------------------------------------------------------[

e]---14-14-14-14-14-12-12----12-12----14-14-14-14-17-14--12--14-14-14-14-15-15-...-
B]----------------------------------------------------------------------------------[
G]----------------------------------------------------------------------------------[
D]----------------------------------------------------------------------------------[
A]----------------------------------------------------------------------------------[
D]----------------------------------------------------------------------------------[

e]-14-14--12—14-14-14---14-14-14------------------------------------------------- [
B]----------------------------------------------------------------------------------[
G]----------------------------------------------------------------------------------[
D]----------------------------------------------------------------------------------[
A]----------------------------------------------------------------------------------[
D]----------------------------------------------------------------------------------[

Chorus 2: Guitar 2 (Acoustic)  (1:30)
G A Bm D


Solo-Guitar 1 (1:58)
e]-----------------------------------------------------------------------------------[
B]-----------------------------------------------------------------------------------[
G]---------------------------------------------------------------------------9-11…...[
D] -----------9--7--5--4-2--4-2-0-2-2-4-----4-2-0-2-2 4p2p0-----------9--7--9-9…….[
A]--0-2--4-5----------------------------2-0--------------------0-2-4-5-------------[
D]----------------------------------------------------------------------------------[

e]--------------------------------------------------------------------------------[
B]--------------------------------------------------------------------------------[
G]--------------------------------------------------------------------------------[
D]—11-9-7-9-9-11----------11-9-7-9-9^-------------------------------------------[
A]---------------------9-7--------------------------------------------------------[
D]--------------------------------------------------------------------------------[


Guitar 2(during solo)
e]---------------------------------------------------------------------------------[
B]---------------------------------------------------------------------------------[
G]---------------------------------------------------------------------------------[
D]-5555-7777-9999 121212--5555-7777-999999--------------------------------------[
A]-5555-7777-9999-121212--5555-7777-999999---------------(x2)--------------------[
D]-5555-7777-9999-121212--5555-7777-999999--------------------------------------[

Bridge: Guitar2: (2:27)
e]--------------------------------------------------------------------------------[
B]--------------------------------------------------------------------------------[
G]--------------------------------------------------------------------------------[
D]--- 7-------5-------------7-7-7---7---------------------------------------------[
A]------7 –-5--5---7-7-7-------------7---------------------------------------------[
D]--------5-----5/7-7-7-7------ ------7/555-777-999-121212-----------------------[
Gradually go from picking the 555 to strumming it, and as you work your way up, 
strum faster and faster until the final chorus.

Final Chorus: Guitar 1 (2:47)
e]--------------------------------------------------------------------------------[
B]—7-8-7------------- ---7-------- -----------------------------------------------[
G]---------9-7-7-9-7-7-7---7-7-7-9-7- (for rest of the song)--------------------------[
D]--------------------------------------------------------------------------------[
A]--------------------------------------------------------------------------------[
D]--------------------------------------------------------------------------------[
Go straight back to the first 7 B String after completing the last 7 on G string.

Final Chorus Guitar 2 (2:47)
e]----------------------------------------------------------------------------------[
B]----------------------------------------------------------------------------------[
G]----------------------------------------------------------------------------------[
D]-5555-7777-9999------5555-7777-9999---12121212-------------555-777-999------9-[
A]-5555-7777-9999------5555-7777-9999---12121212-(x2)then-----555-777-999end on9-[
D]-5555-7777-9999------5555-7777-9999---12121212-------------555-777-999------9-[

And that’s it. Any comments please post them.
:o)Ethan!

Comments about this tab

prosk8er2890 - 2006-11-06

great job with the tab =]
copeland rocks

on a side note, can you try to tab out take care :D


Add a comment/correction

Complimentary Christian Ringtones
Dadamobile and CGR have teamed up to bring your favorite Christian artists right to your phone. Sign up today and get 10 complementary ringtones!
Tab Country
Did you know CGR has a sister site w/ country guitar tabs? Well we do! Its called Tab Country. It has a great archive with a lot of country tabs.
Rockin Tabs
Are you looking for a site that has rock guitar tabs? Then Rockintabs.com is the place for you. It is a budding site with many rock guitar tabs. Submit your tab today.
Tab Gallery
Tab Gallery has a compilation of christian, rock, and country tabs all in one place. Come visit us.