Guitar Tabs
song title    band name

Join Us Today!

Don't strum alone...
be a part of the largest online Christian music community. Browse thousands of guitar tabs and chat w/ musicians like yourself.


It's Free!

This tab has been rated a 4.33 out of 5 for accuracy. (3 votes)Sorry, but you must be logged in to rate this tab.
Click here to log-in, or you can click here to register.
(Registration is free)

All songs owned by corresponding publishing company. If you make copies of any song on this website, be sure to report your usage to CCLI.
Submitted by: RPascarella

Song:    Wait
Artist:  Disciple
Album:   Back Again
Copyright (c) 2003

Tabbed by Randy Pascarella (RKPascarella@hotmail.com)

Intro
D |----------------|----------------|----------------|-----------------|
A |---------3------|---------4------|---------1------|-----------------|
F |----2--2--------|----2--2--------|----2--2--------|----2--2--3------|
C |--0-------------|--0-------------|--0-------------|--0--------------|
G |----------------|----------------|----------------|-----------------|
C |----------------|----------------|----------------|-----------------|

With wah on...
                                  3x
D ||--------------------------------||---------------------------------|
A ||*------------------------------*||---------------------------------|
F ||--------------------------------||---------------------------------|
C ||--------------------------------||---------------------------------|
G ||*--------5-3---5---3-----------*||---------5-3---5-----------------|
C ||---0----0-0----------0-0-3------||---0----0-0----------------------|

                                  4x
D ||--------------------------------||
A ||*------------------------------*||
F ||--------------------------------||
C ||-------------------------4------||
G ||*--------5-3---5---3-----------*||
C ||---0----0-0----------0-0--------||

Verse
    Wah on                                                 Wah off   3x
D ||---x-x-xxxx---x-x-xxxx---x-x--xx-|--x-x-xxxx---x-x-xx--------------||
A ||*--x-x-xxxx---x-x-xxxx---x-x--xx-|--x-x-xxxx---x-x-xx-------------*||
F ||---7-7-xxxx---7-7-xxxx---7-7--xx-|--5-5-xxxx---5-5-xx--------------||
C ||---7-7-xxxx---7-7-xxxx---7-7--xx-|--7-7-xxxx---7-7-xx--1---4---1---||
G ||*--5-5-xxxx---5-5-xxxx---5-5--xx-|--5-5-xxxx---5-5-xx--1---4---1--*||
C ||---x-x-xxxx---x-x-xxxx---x-x--xx-|--x-x-xxxx---x-x-xx--1---4---1---||

    Wah on                     Wah off
D ||---x-x--xxxx---x-x--xxxx---12\---|----------------------------------|
A ||*--x-x--xxxx---x-x--xxxx---12\---|----------------------------------|
F ||---7-7--xxxx---7-7--xxxx---12\---|----------------------------------|
C ||---7-7--xxxx---7-7--xxxx---12\---|----------------------------------|
G ||*--5-5--xxxx---5-5--xxxx---12\---|--0-0---0-0---0-0---0-0---0-0---0-|
C ||---x-x--xxxx---x-x--xxxx---12\---|--0-0---0-0---0-0---0-0---0-0---0-|

D |----------------------------------|----------------------------------|
A |----------------------------------|----------------------------------|
F |----------------------------------|----------------------------------|
C |----------------------------------|----------------------------------|
G |-0---0-0---0-0---0-0-3-0-3-0-3-5--|--0-0---0-0---0-0---0-3-0-3-0-3-5-|
C |-0---0-0---0-0---0-0-3-0-3-0-3-5--|--0-0---0-0---0-0---0-3-0-3-0-3-5-|

D |----------------------------------|----------------------------------|
A |----------------------------------|----------------------------------|
F |----------------------------------|----------------------------------|
C |----------------------------------|----------------------------------|
G |--0-0---0-0---0-0---0-3-0-3-0-3-5-|--0-0---0-0---0-0---0-3-0-3-0-3-5-|
C |--0-0---0-0---0-0---0-3-0-3-0-3-5-|--0-0---0-0---0-0---0-3-0-3-0-3-5-|

Pre-chorus
D |----------------------------------|----------------------------------|
A |----------------------------------|----------------------------------|
F |----------------------------------|--3-----------5-------------------|
C |--0-------2-3-2-0---2--0----------|--3-------------------------------|
G |--0-------2-3-2-0---2--0----------|--1-------------------------------|
C |--0-------2-3-2-0---2--0----------|----------------------------------|

D |----------------------------------|----------------------------------|
A |----------------------------------|----------------------------------|
F |----------------------------------|--3-----------5-------------------|
C |--0-------2-3-2-0---2--0----------|--3-------------------------------|
G |--0-------2-3-2-0---2--0----------|--1-------------------------------|
C |--0-------2-3-2-0---2--0----------|----------------------------------|

D |----------------------------------|----------------------------------|
A |----------------------------------|----------------------------------|
F |----------------------------------|--3-----------5-------------------|
C |--0-------2-3-2-0---2--0----------|--3-------------------------------|
G |--0-------2-3-2-0---2--0----------|--1-------------------------------|
C |--0-------2-3-2-0---2--0----------|----------------------------------|

D |----------------------------------|----------------------------------|
A |----------------------------------|----------------------------------|
F |----------------------------------|--3-----------5-------------------|
C |--0-------2-3-2-0---2--0----------|--3-----------5-------------------|
G |--0-------2-3-2-0---2--0----------|--1-----------3-------------------|
C |--0-------2-3-2-0---2--0----------|----------------------------------|

Chorus
D |----------------------------------|----------------------------------|
A |----------------------------------|----------------------------------|
F |----------7-5-7-------------------|----------7-5-7---3-------5-------|
C |--0-------7-5-7-------------------|----------7-5-7---3-------5-------|
G |--0-------5-3-5---0-0---0-0---0-0-|--0-0-----5-3-5---1-------3-------|
C |--0---------------0-0---0-0---0-0-|--0-0-----------------------------|

D |----------------------------------|----------------------------------|
A |----------------------------------|----------------------------------|
F |----------7-5-7-------------------|----------7-5-7---3-------5-------|
C |--0-------7-5-7-------------------|----------7-5-7---3-------5-------|
G |--0-------5-3-5---0-0---0-0---0-0-|--0-0-----5-3-5---1-------3-------|
C |--0---------------0-0---0-0---0-0-|--0-0-----------------------------|

(1st time)                            
D |----------------------------------|
A |----------------------------------|
F |----------------------------------|
C |--0--0-0-0---1----0--0-0-0--1-1-0-|
G |--0--0-0-0---1----0--0-0-0--1-1-0-|
C |--0--0-0-0---1----0--0-0-0--1-1-0-|

Repeat Verse, Pre-Chorus & Chorus

 (2nd time)
   Gtr I fade out
D |---------------------------------------------------------------------|
A |---------------------------------------------------------------------|
F |---------------------------------------------------------------------|
C |--0------------------------------------------------------------------|
G |--0------------------------------------------------------------------|
C |--0------------------------------------------------------------------|
  |
  | Gtr II                                                           4x
D ||----------------|---------------|---------------|------------------||
A ||*---------3-----|---------4-----|---------1-----|-----------------*||
F ||----------------|---------------|---------------|-------3----353---||
C ||---0-0----------|--0-0----------|--0-0----------|--0-0-----0-------||
G ||*---------------|---------------|---------------|-----------------*||
C ||----------------|---------------|---------------|------------------||

    Gtr I                        7x
D ||-------------------------------||-----------------------------------|
A ||*-----------------------------*||-----------------------------------|
F ||-------------------------------||------------------3-------5--------|
C ||---0---------------------------||---0--------------3-------5--------|
G ||*--0--------------------------*||---0--------------1-------3--------|
C ||---0---------------------------||---0-------------------------------|
  |
  | Gtr II                                                           4x
D ||----------------|---------------|---------------|------------------||
A ||*---------3-----|---------4-----|---------1-----|-----------------*||
F ||----------------|---------------|---------------|-------3----353---||
C ||---0-0----------|--0-0----------|--0-0----------|--0-0-----0-------||
G ||*---------------|---------------|---------------|-----------------*||
C ||----------------|---------------|---------------|------------------||

                                                          pinch harmonic
D  |---------------------------------|---------------------------------|
A  |---------------------------------|---------------------------------|
F  |---------------------------------|---------------------------------|
C  |---------------------------------|---------------------------------|
G  |--0-0---0-0---0-0---0-0---0-0---0|0---0-0---0-0---0-0--------------|
C  |--0-0---0-0---0-0---0-0---0-0---0|0---0-0---0-0---0-0-(3~~~)-------|

D ||---------------------------------|---------------------------------||
A ||*--------------------------------|--------------------------------*||
F ||---------------------------------|---------------------------------||
C ||---------------------------------|---------------------------------||
G ||*-0-0---0-0---0-0---0-0---0-0---0|0---0-0---0-0---0-0-3-0-3-0-3-5-*||
C ||--0-0---0-0---0-0---0-0---0-0---0|0---0-0---0-0---0-0-3-0-3-0-3-5--||

Chorus with 2x on "Here I am..."

   Gtr I
With wah on...
D |----------------------------------|----------------------------------|
A |----------------------------------|----------------------------------|
F |----------------------------------|----------------------------------|
C |----------------------------------|----------------------------------|
G |--------5-3---5---3---------------|--------5-3---5---3---------------|
C |--0----0-0----------0-0-3---------|--0----0-0----------0-0-3---------|
  |
  | Gtr II
D |----------------------------------|-----------------------------12\--|
A |----------------------------------|-----------------------------12\--|
F |----------------------------------|-----------------------------12\--|
C |----------------------------------|-----------------------------12\--|
G |----------------------------------|-----------------------------12\--|
C |----------------------------------|-----------------------------12\--|

                                  3x
D ||--------------------------------||----------------------------------|
A ||*-------7--------8---------3---*||----------------------------------|
F ||--------7--------7-----3-5------||----------------------------------|
C ||--------5--------5--------------||--0-------------------------------|
G ||*-0--0-----0--0----------------*||--0-------------------------------|
C ||--0--0-----0--0-----------------||--0-------------------------------|

Comments about this tab

Disciple Freak - 2006-05-04

thank you for tabbing this. but i think that in the intro where it does:

D------------------------------------
A------------------------------------
F------------------------------------
C-------------------------4----------
G---------5-3---5---3----------------
C---0----0-0----------0-0------------

it should be:

D------------------------------------
A------------------------------------
F------------------------------------
C--------------4------------4--------
G---0-0-5-3-5-3--0-0-5-3-5-3---------
C---0-0----------0-0-----------------

but otherwise it is very good. thank you very much for tabbing this song! god bless.


RPascarella - 2006-05-05

I went back and relistened to this at half-speed and I'm quite confident the tab was correct, with the following possible exception:

Was:
4x
D ||--------------------------------||
A ||*------------------------------*||
F ||--------------------------------||
C ||-------------------------4------||
G ||*--------5-3---5---3-----------*||
C ||---0----0-0----------0-0--------||

Could be:
4x
D ||--------------------------------||
A ||*------------------------------*||
F ||--------------------------------||
C ||--------------------------------||
G ||*--------5-3---5---3-----------*||
C ||---0----0-0----------0-0-<4>----||

where the <4> is a harmonic. Hard to tell, sounds good either way!


RPascarella - 2006-06-02

Doh! Found another problem. The end of the Gtr II part should be changed from:

D ||----------------|---------------|---------------|------------------||
A ||*---------3-----|---------4-----|---------1-----|-----------------*||
F ||----------------|---------------|---------------|-------3----353---||
C ||---0-0----------|--0-0----------|--0-0----------|--0-0-----0-------||
G ||*---------------|---------------|---------------|-----------------*||
C ||----------------|---------------|---------------|------------------||

to:

D ||----------------|---------------|---------------|------------------||
A ||*---------3-----|---------4-----|---------1-----|--------------3--*||
F ||----------------|---------------|---------------|-------3----35----||
C ||---0-0----------|--0-0----------|--0-0----------|--0-0-----0-------||
G ||*---------------|---------------|---------------|-----------------*||
C ||----------------|---------------|---------------|------------------||
^
Change here -------------------------------------------------------

I noticed on the live DVD that Brad slides the 3-5 transition on the F string, which is cool too.


Add a comment/correction

Complimentary Christian Ringtones
Dadamobile and CGR have teamed up to bring your favorite Christian artists right to your phone. Sign up today and get 10 complementary ringtones!
Tab Country
Did you know CGR has a sister site w/ country guitar tabs? Well we do! Its called Tab Country. It has a great archive with a lot of country tabs.
Rockin Tabs
Are you looking for a site that has rock guitar tabs? Then Rockintabs.com is the place for you. It is a budding site with many rock guitar tabs. Submit your tab today.
Tab Gallery
Tab Gallery has a compilation of christian, rock, and country tabs all in one place. Come visit us.