Guitar Tabs
song title    band name

Join Us Today!

Don't strum alone...
be a part of the largest online Christian music community. Browse thousands of guitar tabs and chat w/ musicians like yourself.


It's Free!

This tab has been rated a 4.00 out of 5 for accuracy. (6 votes)Sorry, but you must be logged in to rate this tab.
Click here to log-in, or you can click here to register.
(Registration is free)

All songs owned by corresponding publishing company. If you make copies of any song on this website, be sure to report your usage to CCLI.
Submitted by: Dani_Boy

Artist: Thousand Foot Krutch
Song: Break The Silence
Album: Phenomenon
Tuning: Drop D

This song sounded pretty simple to me at first, but then I discovered that
there are lots of minor powerchords, which complicates things a bit. I'm not
trying to scare you though, it's still easy if you've got some experience.
Rhythm Guitar uses distortion and Lead Guitar uses bright sound.

p = Pull off
x = Scratching, heavy muting with fret hand to get a cool "dead" sound
P.M. or ... = Palm Muting
|--LG--| = Marks place in a Rhythm Guitar section where the Lead Guitar plays


  Intro: Rhythm Guitar 
G|------------------------------------------|
D|------012-0--0--08-0-5---7----------xxxx--|
A|--7p0-012-0--0--08-0-5---5----------xxxx--|x2
D|--7p0-012-0--0--08-0-5---5----------xxxx--|
                                       
  Intro: Lead Guitar                    
G|-------7---------5----------10101010xxxx--|
D|-------x---------x----------x-x-x-x-xxxx--|
A|-------5---------3----------8-8-8-8-xxxx--|x2
D|------------------------------------------|

Lead Guitar scratches in a lighter way so that it almost does a few natural
harmonics at the same time. But you don't have to think to much about that,
just scratch.


  Verse: Rhythm Guitar
G|---------------------------------------------------------------------|
D|--7-0--0--0--0--xx10-0--0--0--0--xx7-0--0--0--0--xx3-0--0--0--0--xx--|
A|--7-0--0--0--0--xx10-0--0--0--0--xx7-0--0--0--0--xx3-0--0--0--0--xx--|x2
D|--7-0--0--0--0--xx10-0--0--0--0--xx7-0--0--0--0--xx3-0--0--0--0--xx--|


  Chorus: Rhythm Guitar
G|-----------5-5-5555--------------------------------5-5-5555----------------|
D|------0-0-05-5-5555-0-0-0-0-101010-1010------0-0-0-5-5-5555-0-0-0-0-10---3-|
A|--3p0-0-0-03-3-3333-0-0-0-0-8-8-8--8-8-0h3p0-0-0-0-3-3-3333-0-0-0-0-8----3-|
D|--3p0-0-0-0---------0-0-0-0-8-8-8--8-8-0h3p0-0-0-0----------0-0-0-0-8----3-|


Interlude (Same as intro, also played two times)

Verse

Chorus x2


  Bridge: Rhythm Guitar
G|-----------------------------------|
D|--8---8---555-5---0---0---7777755--|
A|--8---8---333-3---0---0---xxxxxxx--|
D|--8---8---333-3---0---0---5555533--|
                           |--LG---|

G|-------------------------------------|
D|--8---8---555-5---0---0---777771010--|
A|--8---8---333-3---0---0---xxxxxx-x---|
D|--8---8---333-3---0---0---555558-8---|
                           |---LG---|

G|-----------------------------------|
D|--8---8---555-5---0---0---7777755--|
A|--8---8---333-3---0---0---xxxxxxx--|
D|--8---8---333-3---0---0---5555533--|
                           |--LG---|

G|-----------------------------------|
D|--3---3---1---1---0----------------|
A|--3---3---1---1---0----------------|
D|--3---3---1---1---0----------------|


Chorus x2


  Bridge 2: Rhythm Guitar
G|------------------------------------------------------------------|
D|--xx-x-x-x-x-x-xxxxx-x-x-x-x-x-xxxxx-x-x-x-x-x-xxxxx-x-x-x-x-x-x--|
A|--xx-x-x-x-x-x-xxxxx-x-x-x-x-x-xxxxx-x-x-x-x-x-xxxxx-x-x-x-x-x-x--|
D|--xx-x-x-x-x-x-xxxxx-x-x-x-x-x-xxxxx-x-x-x-x-x-xxxxx-x-x-x-x-x-x--|

  Bridge 2: Lead Guitar
G|--14---------------15--------------5---------------7--------------|
D|--x----------------x---------------x---------------x--------------|
A|--12---------------13--------------3---------------5--------------|
D|------------------------------------------------------------------|


  Rhythm Guitar
G|------------------------------------------------------------------|
D|--xx-x-x-x-x-x-xxxxx-x-x-x-x-x-xxxxx-x-x-x-x-x-xxxxx-x-x-xxx-xxx--|
A|--xx-x-x-x-x-x-xxxxx-x-x-x-x-x-xxxxx-x-x-x-x-x-xxxxx-x-x-xxx-xxx--|
D|--xx-x-x-x-x-x-xxxxx-x-x-x-x-x-xxxxx-x-x-x-x-x-xxxxx-x-x-xxx-xxx--|

  Lead Guitar
G|--14---------------15--------------5---------------7--------------|
D|--x----------------x---------------x---------------x--------------|
A|--12---------------13--------------3---------------5--------------|
D|------------------------------------------------------------------|


  Rhythm Guitar
G|------------------------------------------------------------------|
D|--0---0---0---0---0---0---0---0---0---0---0---0---0---0---0---0---|
A|--0---0---0---0---0---0---0---0---0---0---0---0---0---0---0---0---|
D|--0---0---0---0---0---0---0---0---0---0---0---0---0---0---0---0---|

  Lead Guitar
G|--14--------------15--------------17--------------19-------------|
D|--x---------------x---------------x---------------x--------------|
A|--12--------------13--------------15--------------17-------------|
D|-----------------------------------------------------------------|


  Rhythm Guitar
G|-------------------------------------------------------------------|
D|--0---0---0---0---0---0---0---0---0---0---0---0---0---0------------|
A|--0---0---0---0---0---0---0---0---0---0---0---0---0---0---000-000--|
D|--0---0---0---0---0---0---0---0---0---0---0---0---0---0---000-000--|
P.M.                                                        ... ...

  Lead Guitar
G|--14--------------15--------------17--------------19-------------|
D|--x---------------x---------------x---------------x--------------|
A|--12--------------13--------------15--------------17-------------|
D|-----------------------------------------------------------------|


Well, that should be it. The only part I'm slightly unsure of is the rhythm
of Bridge 2 when the Rhythm Guitar plays D5 chords. (Loose strings) But it
sounds like it's played that way and it sounds good when you play it. Tell me
if you find any mistakes or wonder about anything.

Now I've only got Last Words left to do, then I've done all songs in the
Phenomenon album! :) TFK ROCKS!!!
God Bless,
Daniel

Comments about this tab

SHARK - 2006-04-22

man youre tabbing this album quick!great job!


Dani_Boy - 2006-04-23

hehe,thanks. I'll have to tune down to Drop B in order to do Last Words, So I think I'll do a few other songs first, like Energy by Skillet or About A Burning Fire by Blindside. I haven't done anything else than TFK so far, so I want to do a few other songs, just to get some variation. But I'm gonna do Last Words soon. And then I'm going to put them all in an album tab where I've corrected all the small mistakes. After that I'll just have to start tabbing the rest of The Art of Breaking. I think I'll start with Hand Grenade, how's that? :)


SHARK - 2006-04-25

u dont have 2 rush with hand grenade ok!I probably wouldnt be able to play straight away so do it when youre ready!


Dani_Boy - 2006-04-28

WHAT?!?!?!?!?!

0.00?!

I mean come on, it might not be entirely perfect, but it's not that bad. Why 0 in rating? Whoever you are, GIVE AN EXPLAINATION PLEASE!!! It's okay with me that you don't like my tab, but please tell me what I've done bad or try tabbing something better yourself. I want to improve all my tabs to make them have as little amount of mistakes as possible. I WOULD BE HAPPY WITH A 0 IF I GOT IT FOR A GOOD REASON. But seriously, I don't think it's THAT bad, is it?

I've spent a lot of time on this tab and on other tabs too, because I want to make good tabs who can help people play guitar better and let TFK fans learn how to play their favorite songs. It feels really discouraging to think that somebody considers my tab worthless. So PLEASE, tell me what mistakes I did, if I did any. If I didn't, just tell me what you don't like about the tab.

God Bless,
A slightly discouraged Daniel Hughes


ice_wiz - 2006-04-28

I wouldn't look to far into it. It was probably just some guy going through tabs and gave it a 0.00 for "fun". Some guy did that on a Bounce tab on here. When I run off the song, I'll rate it and give it the rating it deserves. So just don't worry about. Your an excellent tabber.


Dani_Boy - 2006-04-29

Yeah, I kinda thought it was just some jerk, because I know it's more worth than that. I just wanted to give a chance for an explaination, in case there actually was some etrange reason behind it all. Well, I'm not really discouraged, what I mean is it's just no fun at all having a 0 rating on one of my tabs, even if it's for no reason. If it's only someone doing it "for fun", then this means I'll always have a lower rating I then the tab deserves.

So no big deal, I'm just happy if more people vote so that I get a more justified rating. So I'm very thankful to anyone who votes. Please give it what you rhink it deserves, as if mt rating was "none". THANKS


ice_wiz - 2006-04-29

Okay, so I tryed it out and it was really good (espicially the inro). So it's obvious that it was some guy with too much time on his hands.


ice_wiz - 2006-04-29

*intro


Dani_Boy - 2006-04-29

Thanks Ice.


akaukal - 2006-05-01

yeah i'll give u 5 cause it's good and so it will help repair the damage done by that other guy who thought 0 was nescessary.


Dani_Boy - 2006-05-01

Thanks Akaukal. By the way, where'd you get that name from? It sounds relly cool, but it makes no sence. lol, It doesn't really have to make sence, but I just wondered what made you pick that name. It's cool


akaukal - 2006-05-02

actually, i made it up. I use it on every site that requires a nickname. No one else uses it, and it's fun trying to see people try to spell it!


Dani_Boy - 2006-05-03

Yeah, it's really cool. Good nickname. I think I've spelled it right so far... lol


zero91 - 2006-05-06

this sounds good to me, i gave it a five.i love this song!the guitar sounds so cool, i'm glad you tabbed it.thats funny, i use the name zero for everything (websites,video games,ect.)


Dani_Boy - 2006-05-06

Zero is cool, keep using it! (But not when you're rating lol) :) Thanks for raising my accuracy rating for me, some dude gave me a 0, so it's taken some votes to get it up to 4. I haven't voted any of my tabs myself, except for the old tab of Quicken which I gave a 3 and then made a corrected tab. So thanks for commenting my tabs zero!


zero91 - 2006-05-06

haha, thanks


zero91 - 2006-05-06

this song definitely doesnt deserve a 0.00!


Te eF Kay - 2006-05-07

I so agree with zero91!
pay no attention to that 0.00 it was just someone jelous thathe cant tab this good!


Dani_Boy - 2006-05-08

Haha, thanks. I'm not paying to much attention, it's just a shame that it drags down my rating so much. Whatever, the ratings not the important thing, what's important is that I can help people learn to play the songs :)


tl_guitarnut - 2006-05-10

you're really helping me to become a better guitarist!


Dani_Boy - 2006-05-12

Then I'm achieving my goal :)


Te eF Kay - 2006-05-14

same goes for me!


Dani_Boy - 2006-05-15

Hehe


Add a comment/correction

Complimentary Christian Ringtones
Dadamobile and CGR have teamed up to bring your favorite Christian artists right to your phone. Sign up today and get 10 complementary ringtones!
Tab Country
Did you know CGR has a sister site w/ country guitar tabs? Well we do! Its called Tab Country. It has a great archive with a lot of country tabs.
Rockin Tabs
Are you looking for a site that has rock guitar tabs? Then Rockintabs.com is the place for you. It is a budding site with many rock guitar tabs. Submit your tab today.
Tab Gallery
Tab Gallery has a compilation of christian, rock, and country tabs all in one place. Come visit us.