Guitar Tabs
song title    band name

Join Us Today!

Don't strum alone...
be a part of the largest online Christian music community. Browse thousands of guitar tabs and chat w/ musicians like yourself.


It's Free!

This tab has been rated a 4.80 out of 5 for accuracy. (5 votes)Sorry, but you must be logged in to rate this tab.
Click here to log-in, or you can click here to register.
(Registration is free)

All songs owned by corresponding publishing company. If you make copies of any song on this website, be sure to report your usage to CCLI.
Submitted by: Adam K

Hawk Nelson-Something On My Mind
From: Smile, It's The End Of The World
Copyright  2006 Tooth and Nail Records
Drop D Tuning D-A-D-G-B-E

s=slide
~=let it ring
v=vibrato
h=hammer on
p=pull off
b=bend
 
Intro
Piano
Then Piano and
Gtr. 1
G[-xx5-5-5-5-5-5-x5s7-5s7-xx----]
D[-xxx-x-x-x-x-x-xxsx-xsx-xx----]x2
A[-xx3-3-3-3-3-3-x3s5-3s5-xx----]

G[-xx5-5-5-5-5-5-x5s7/5/4-4-4-4-4-4-xx5s4-5s4--]
D[-xxx-x-x-x-x-x-xxsx/x/x-x-x-x-x-x-xxxsx-xsx--]
A[-xx3-3-3-3-3-3-x3s5/3/2-2-2-2-2-2-xx3s2-3s2--]

Verse 1
G[-xx5-5-5-5-5-5-x5s7-5s7-xx----]
D[-xxx-x-x-x-x-x-xxsx-xsx-xx----]x3
A[-xx3-3-3-3-3-3-x3s5-3s5-xx----]

G[-xx5-5-5-5-5-5-x5s7/5/4-4-4-4-4-4-xx5s4-5s4--]
D[-xxx-x-x-x-x-x-xxsx/x/x-x-x-x-x-x-xxxsx-xsx--]
A[-xx3-3-3-3-3-3-x3s5/3/2-2-2-2-2-2-xx3s2-3s2--]
Repeat Verse 

Pre-Chorus
G[-5~~~~11~~~~(4)--(5)--8----]
D[------------(x)--(x)--x----]
A[------------(2)--(3)--6----]

Chorus
G[-5--9--5--7--5--9--5--7--5-5-5-5----------5--7--5--9--5--7----]
D[-5--7--3--5--5--7--3--5--5-5-5-5/7~-7-7-7-3--5--5--7--3--5----]
A[-3--7--3--5--3--7--3--5--3-3-3-3/7~-7-7-7-3--5--3--7--3--5----]
D[----7--3--5-----7--3--5---------/7~-7-7-7-3--5-----7--3--5----]

Post-Chorus
A[-3-3-3-3-3-3-3/5v--]

Verse 2
(Same as Verse 1)

Pre-Chorus

Chorus x2

Post-Chorus

Bridge
Bass
Then
G[-5/5-5/5-5/5-5/5--------5/5-5/5-5/5-xx5------]
D[-5/5-5/5-5/5-5/5--------5/5-5/5-5/5-xx5-6----]
A[-3/3-3/3-3/3-3/3-3h5/7--3/3-3/3-3/3-xx3-6----]
D[----------------------------------------6----]

G[-5/5-5/5-5/5-5/5--------5/5-5/5-5/5-5/5----------]
D[-5/5-5/5-5/5-5/5--------5/5-5/5-5/5-5/5----------]
A[-3/3-3/3-3/3-3/3-3h5/7--3/3-3/3-3/3-3/3-8/7/5----]
D[-------------------------------------------------]

G[-5/5-5/5-5/5-5/5--------5/5-5/5-5/5-xx5---xx5---xx5------]
D[-5/5-5/5-5/5-5/5--------5/5-5/5-5/5-xx5-6-xx5-6-xx5-6----]
A[-3/3-3/3-3/3-3/3-3h5/7--3/3-3/3-3/3-xx3-6-xx3-6-xx3-6----]
D[----------------------------------------6-----6-----6----]

Chorus 2
No guitar
Then
G[-5-5-5-5----------5--7--5--9--5--7----]
D[-5-5-5-5/7~-7-7-7-3--5--5--7--3--5----]
A[-3-3-3-3/7~-7-7-7-3--5--3--7--3--5----]
D[--------/7~-7-7-7-3--5-----7--3--5----]

G[-5--9--5--7--5--9--5--7----]
D[-5--7--3--5--5--7--3--5----]
A[-3--7--3--5--3--7--3--5----]x2
D[----7--3--5-----7--3--5----]

Interlude
Gtr. 2
G[-5--9--5--7--5--9--5--7----]
D[-5--7--3--5--5--7--3--5----]
A[-3--7--3--5--3--7--3--5----]x2
D[----7--3--5-----7--3--5----]

Gtr. 1
Solo
G[-5/5h7-9-7-5-4/5--0/5/4-2-2-7-5/4-0--0/5/7-9-7-5-4/5-7p5--0/4/5-7-7-7-5-9-7-
D[--------------------------------------------------------7-------------------

G[0/5h7-9-7-5-4/5--5/7h9-10-10-10-9-7---9b/7-9b/7-9b/12/9--9b/7-9b/7-9b/7-9-7-
D[------------------------------------5---------------------------------------


Ending
G[-5/5-5/5-5/5-5/5--------5/5-5/5-5/5-5/5-------5----]
D[-5/5-5/5-5/5-5/5--------5/5-5/5-5/5-5/5-------5----]
A[-3/3-3/3-3/3-3/3-3h5/7--3/3-3/3-3/3-3/3-8-7-5-3----]
D[---------------------------------------------------]



Tabbed by Adam K

Comments about this tab

Hawk_Nelson89 - 2006-06-03

OMG I LOVE YOU ADAM K!!!!! thanks for the awesome tab!!! keep it up


tl_guitarnut - 2006-06-05

I found two mistakes, first, on verse 1, it should be 2x not 3. Second on the solo it should be
G | --5/7h9-10-10-9-7-0-0-5-7-9b/7-9b/7-9b/12/9--9b/7-9b7-9b7-9-7--|
D | ---------------------------------------------------------------|

Great tab though!


rockNforchrist - 2006-06-24

Nice tab thats almost exactly how I figured it out. I got a different solo but yours sounds better. This is one of my fav songs on this cd. But I dont know if HN plays it in this tuning.


RockStarPhil24 - 2006-06-30

The song is in Drop C# if I'm not mistaken... but you can pretty much make any of their songs sound good in Drop D or Standard tuning, it'll just look a little different on the tabs.


sac346 - 2006-10-11

Havn't found one thing wrong with adam k's tabs. He's a genius!


Bnizzle - 2007-04-19

Hey does anyone have a link to the piano into/part? Thanks a lot in advance!


Bnizzle - 2007-04-19

or the chords for the guitar for this song?


EKCender429 - 2007-09-08

i kinda figured out the piano part


Add a comment/correction

Complimentary Christian Ringtones
Dadamobile and CGR have teamed up to bring your favorite Christian artists right to your phone. Sign up today and get 10 complementary ringtones!
Tab Country
Did you know CGR has a sister site w/ country guitar tabs? Well we do! Its called Tab Country. It has a great archive with a lot of country tabs.
Rockin Tabs
Are you looking for a site that has rock guitar tabs? Then Rockintabs.com is the place for you. It is a budding site with many rock guitar tabs. Submit your tab today.
Tab Gallery
Tab Gallery has a compilation of christian, rock, and country tabs all in one place. Come visit us.