Guitar Tabs
song title    band name

Join Us Today!

Don't strum alone...
be a part of the largest online Christian music community. Browse thousands of guitar tabs and chat w/ musicians like yourself.


It's Free!

This tab has been rated a 4.00 out of 5 for accuracy. (10 votes)Sorry, but you must be logged in to rate this tab.
Click here to log-in, or you can click here to register.
(Registration is free)

All songs owned by corresponding publishing company. If you make copies of any song on this website, be sure to report your usage to CCLI.
Submitted by: Jeff Drake

Artist: Relient K
Album: Apathetic EP
Song: Be My Escape (Acoustic)
Gotee/Capitol Records
Tabbist/Tabber/Transcriber/Me: Jeff McAleer (jeffmcaleer_at_bellsouth_dot_net)




Capo 2
All chords relative to capo

##Intro##

Guitar 1:

Em  Eadd9
Em  Eadd9 Em7add9

Guitar 2:
N/C  Cmaj7
Em   Cmaj7



##Verse##

G A7sus Cadd9 

Em7 Dsus A7sus G/B Cadd9 (2x)





##PreChorus##

Em7 Cadd9 G Dsus (3x)

Am C D 




##Chorus##

G Dsus Cadd9 Dsus (3x)

Em7 Dsus Cadd9 Dsus


##Bridge##

Guitar 1:

 |        |       |       |        |
E|---------------------------------|
B|---------------------------------|
G|---------------------------------|
D|---------------------------------|
A|-------2---------0-0-0-0-0-0-0-0-|
E|-0-0-0-3-0-0-3-3-----------------|
 |        |       |       |        |

 |        |       |       |        |
E|---------------------------------|
B|---------------------------------|
G|---------------------------------|
D|---------------------------------|
A|-----------------0-0-0-0-0-0-0-0-|
E|-3-3-3-3-3-3-3-3-----------------|
 |        |       |       |        |


Bass (no capo, can be played on the guitar but transpose it):
G|---------------------------------|
D|---------------------------------|
A|-------0-----4-4-5-5-5-5-5-5-5-5-|
E|-2-2-2---2-2---------------------|

G|---------------------------------|
D|---------------------------------|
A|-----------------2-2-2-2-2-2-2-2-|
E|-0-0-0-0-0-0-0-0-----------------|

Guitars 3 and 4:

ehhh . . . just play around with the 3 chords guitar 1
used in the intro.  Its not that difficult and isn't worth
tabbing out.



------------
I play this with a piano player, so I've never
bothered to learn the piano part on guitar.  You'll
have to figure the end out on your own




Guitar 1 Intro Chords

Em      079987
Eadd9   079977
Em7add9 079777



Guitar 2 Intro Chords

Cmaj7   032000
Em      022000



Chords for the rest of the song

G       320033
A7sus   x02233
Cadd9   x32033
Em7     022033
Dsus    xx0233
G/B     x20033
Am      x02210
C       x32010
D       xx0232

Comments about this tab

RockinfotheRock - 2006-06-15

the bass part is wrong.

here's how it goes

G-------------------------------------------------------------------
D----------4-4------------------------------------------------------
A--------4-----4-4-5-5-5-5-5-5-5-5-0-0-0-0-0-0-0-0------------------
E--2-2-2-------------------------------------------7-7-7-7-7-7-7-7--


RockinfotheRock - 2006-06-22

Crap... it didnt turn out right.


G--------------------------------------------------
D----------4-4-------------------------------------
A--------4-----4-4-5-5-5-5-5-5-5-5-0-0-0-0-0-0-0-0-
E--2-2-2-------------------------------------------

G-------------------
D------------------- x2
A-------------------
E--7-7-7-7-7-7-7-7--


e3missions.com - 2006-07-06

pretty nice i like that you kept it simple


hanr - 2006-07-28

cool thanks. seems pretty simple and works. this is the only one i really get.


Jeff Drake - 2006-11-03

Totally right on the bass part. I had the F# an octave down, and then for some weird reason I put the open notes on the E string instead of the A.

Mods, can i correct the tab and resend?


Add a comment/correction

Complimentary Christian Ringtones
Dadamobile and CGR have teamed up to bring your favorite Christian artists right to your phone. Sign up today and get 10 complementary ringtones!
Tab Country
Did you know CGR has a sister site w/ country guitar tabs? Well we do! Its called Tab Country. It has a great archive with a lot of country tabs.
Rockin Tabs
Are you looking for a site that has rock guitar tabs? Then Rockintabs.com is the place for you. It is a budding site with many rock guitar tabs. Submit your tab today.
Tab Gallery
Tab Gallery has a compilation of christian, rock, and country tabs all in one place. Come visit us.