Guitar Tabs
song title    band name

Join Us Today!

Don't strum alone...
be a part of the largest online Christian music community. Browse thousands of guitar tabs and chat w/ musicians like yourself.


It's Free!

This tab has been rated a 3.50 out of 5 for accuracy. (6 votes)Sorry, but you must be logged in to rate this tab.
Click here to log-in, or you can click here to register.
(Registration is free)

All songs owned by corresponding publishing company. If you make copies of any song on this website, be sure to report your usage to CCLI.
Submitted by: Adam K

Hawk Nelson-Everything You Ever Wanted
From: Smile, It's The End Of The World
Copyright  2006 Tooth and Nail Records
Drop D Tuning D-A-D-G-B-E

palm mute=...etc.
~=let it ring
b=bend
rb=return bend
h=hammer on
s=slide 

Intro
Gtr. 1
E[---------3-3--------]
B[-------------3------]
G[-----5---------5----]
D[---5---5------------]x2
A[-3------------------]

Gtr. 2
B[-5/5/5/5/5/5/5/5/5/5/5/5/5/5/5/5,etc.---]
Then
Gtr. 1
E[---------3-3--------]
B[-------------3------]
G[-----5---------5----]
D[---5---5------------]x4
A[-3------------------]

Gtr. 2
G[-5----------5---------]
D[-5----10----5----5----]
A[-3-----7----3----5----]
D[-------7----3----5----]

Verse 1
A[-3-------------------]
D[------3----0----5----]
  .....................
Then
G[--------5/5-----7/7-----5/5--------]
D[----5/5-----5/5-----5/5-----5/5----]
A[-3/3-------------------------------]
   ......     ...     ...     ...

G[---------5/5-----7/7-----5/5--------]
D[-3/3/5/5-----5/5-----5/5-----5/5----]
A[------------------------------------]
   .......     ...     ...     ...

G[--------5/5-----7/7-----5/5--------]
D[----5/5-----5/5-----5/5-----5/5----]
A[-5/5-------------------------------]
   ......     ...     ...     ...

G[---------5/5-----7/7-----5/5--------]
D[-5/5/5/5-----5/5-----5/5-----5/5----]
A[------------------------------------]
   .......     ...     ...     ...

Pre-Chorus
Gtr. 2
B[-----0--0--------1----3------0--0--------1------3----]
G[---0------0----0----0------0------0----0------5------]
D[-2-----------3-----------2-----------3------5--------]

Gtr. 1
E[-0-3------3----------------0-3------------------3--------]
B[-----0------0------1----3------0----0-3------1----3------]
G[-------0---------0----0----------0---------0--------5----]
D[---------------3-------------------------3---------------]

Chorus
Gtr. 2
G[-5----------5---------]
D[-5----10----5----5----]
A[-3-----7----3----5----]x2
D[-------7----3----5----]

Gtr. 1
every power chord play this
E[--3~--]

Verse 2
Bass
Then
A[-3-------------------]
D[------3----0----5----]x2
  .....................
Then
G[--------5/5-----7/7-----5/5--------]
D[----5/5-----5/5-----5/5-----5/5----]
A[-3/3-------------------------------]
   ......     ...     ...     ...

G[---------5/5-----7/7-----5/5--------]
D[-3/3/5/5-----5/5-----5/5-----5/5----]
A[------------------------------------]
   .......     ...     ...     ...

G[--------5/5-----7/7-----5/5--------]
D[----5/5-----5/5-----5/5-----5/5----]
A[-5/5-------------------------------]
   ......     ...     ...     ...

G[---------5/5-----7/7-----5/5--------]
D[-5/5/5/5-----5/5-----5/5-----5/5----]
A[------------------------------------]
   .......     ...     ...     ...
Then
G[--------5/5-----7/7-----5/5--------]
D[----5/5-----5/5-----5/5-----5/5----]
A[-3/3-------------------------------]
   ......     ...     ...     ...

G[---------5/5-----7/7-----5/5--------]
D[-3/3/5/5-----5/5-----5/5-----5/5----]
A[------------------------------------]
   .......     ...     ...     ...

G[--------5/5-----7/7-----5/5--------]
D[----5/5-----5/5-----5/5-----5/5----]
A[-5/5-------------------------------]
   ......     ...     ...     ...

G[---------5/5-----7/7-----5/5--------]
D[-5/5/5/5-----5/5-----5/5-----5/5----]
A[------------------------------------]
   .......     ...     ...     ...

Pre-Chorus

Chorus

Bridge
Gtr. 2
D[-7----5----3--------5----]
A[-7----5----3--------5----]x2
D[-7----5----3--------5----]

Gtr. 1
B[----8--5brb----8--5brb----8--5brb-3--3h5----]
G[--5----------5----------5-------------------]

B[----8--5brb----8--5brb----8--5brb-3--3s5/1----]
G[--5----------5----------5---------------------]

Chorus 2
Gtr. 2
G[-5----------5---------]
D[-5----10----5----5----]
A[-3-----7----3----5----]
D[-------7----3----5----]

Gtr. 1
B[-5/5/5/5/5/5/5/5/5/5/5/5/5/5/5/5,etc.---]
Then
Gtr. 2
G[-5----------5---------]
D[-5----10----5----5----]
A[-3-----7----3----5----]x4
D[-------7----3----5----]

Gtr. 1
E[----------8----8----]
B[-8---8----8----8----]x4

End on
Gtr. 2
G[-5----]
D[-5----]
A[-3----]

Gtr. 1
E[-8/8/8/8/8/8/8/8/8/8/8/8/8/8/8/8,etc.---]



Tabbed by Adam K

Comments about this tab

tl_guitarnut - 2006-06-03

Great tab Adam


xDisconnektiex - 2006-06-04

You are like the love of my life! you are the only person who has been tabbing hawk nelson lately! great job!! keep tabbing hawk nelson!


5isakoolnumber - 2006-11-29

hawk nelson is sweet, thank adam (or if that is your name)


Add a comment/correction

Complimentary Christian Ringtones
Dadamobile and CGR have teamed up to bring your favorite Christian artists right to your phone. Sign up today and get 10 complementary ringtones!
Tab Country
Did you know CGR has a sister site w/ country guitar tabs? Well we do! Its called Tab Country. It has a great archive with a lot of country tabs.
Rockin Tabs
Are you looking for a site that has rock guitar tabs? Then Rockintabs.com is the place for you. It is a budding site with many rock guitar tabs. Submit your tab today.
Tab Gallery
Tab Gallery has a compilation of christian, rock, and country tabs all in one place. Come visit us.