Guitar Tabs
song title    band name

Join Us Today!

Don't strum alone...
be a part of the largest online Christian music community. Browse thousands of guitar tabs and chat w/ musicians like yourself.


It's Free!

This tab has been rated a 2.50 out of 5 for accuracy. (6 votes)Sorry, but you must be logged in to rate this tab.
Click here to log-in, or you can click here to register.
(Registration is free)

All songs owned by corresponding publishing company. If you make copies of any song on this website, be sure to report your usage to CCLI.
Submitted by: Adam K

Hawk Nelson-The Show
From:Smile, It's The End Of The World
Copyright  2006 Tooth and Nail Records
Drop C# Tuning C#-G#-C#-F#-A#-D#

palm mute=...etc.
h=hammer on
~=let it ring

Intro
D#[-----------------------------------------]
A#[---5--3--3-2-----------------------------]
F#[-------------4-2-2h4-1--1--2--2-2-1/1----]
C#[-2--------------------2--2---------------]
    .                    .  . 

D#[----------------------------------------------]
A#[--------5--3--3-2-----------------------------]
F#[------------------4-2-2h4-1--1--2--2-2-1/1----]
C#[2/2/2-2--------------------2--2---------------]
   ..... .                    .  . 

Verse 1
C#[-2------------------2----------------------]
G#[-2------------------2----------------------]x2
C#[-2--6/7--0-0-4/4/2--2--6/7--0-0-4/4/2/2----]

Chorus
C#[-2--6/7--0/0--4/4/2/2----]
G#[-2--6/7--0/0--4/4/2/2----]x4
C#[-2--6/7--0/0--4/4/2/2----]

Post-Chorus
D#[---------2-3-4---------------------------]
A#[---5--3--3-4-5---------------------------]
F#[---------------2-2h4-1--1--2--2-2-1/1----]
C#[-2--------------------2--2---------------]
    .                    .  . 

Verse 2
(Same as Verse 1)

Chorus

Bridge
C#[-2~~~~--]
G#[-2~~~~--]
C#[-2~~~~--]Stop 4 awhile 
Then Bass
Then
D#[-0----5----5----4----4----5----5----4----]
A#[-0----5----5----5----5----5----5----5----]
F#[-4---------------------------------------]
C#[-2---------------------------------------]
G#[-2---------------------------------------]
C#[-2---------------------------------------]
Then
D#[-4----5----5----4----4----5----5--12-12-12-12----]
A#[-5----5----5----5----5----5----5---x--x--x--x----]
F#[-----------------------------------9--9--9--9----]

Chorus 2
C#[-2--6/7--0/0--4/4/2/2----]
G#[-2--6/7--0/0--4/4/2/2----]x8
C#[-2--6/7--0/0--4/4/2/2----]

Outro
C#[---------0----------0----------0--0-1-2----]
G#[---------0----------0----------0--0-1-2----]
C#[-2-2/5/2-0--2-2/5/2-0--2-2/5/2-0--0-1-2----]

C#[---------0----------0----------0--0--1--2----]
G#[---------0----------0----------0--0--1--2----]
C#[-2-2/5/2-0--2-2/5/2-0--2-2/5/2-0--0--1--2----]


Tabbed by Adam K

Comments about this tab

pickinpk - 2008-01-15

Awesome Tab!


Add a comment/correction

Complimentary Christian Ringtones
Dadamobile and CGR have teamed up to bring your favorite Christian artists right to your phone. Sign up today and get 10 complementary ringtones!
Tab Country
Did you know CGR has a sister site w/ country guitar tabs? Well we do! Its called Tab Country. It has a great archive with a lot of country tabs.
Rockin Tabs
Are you looking for a site that has rock guitar tabs? Then Rockintabs.com is the place for you. It is a budding site with many rock guitar tabs. Submit your tab today.
Tab Gallery
Tab Gallery has a compilation of christian, rock, and country tabs all in one place. Come visit us.