Guitar Tabs
song title    band name

Join Us Today!

Don't strum alone...
be a part of the largest online Christian music community. Browse thousands of guitar tabs and chat w/ musicians like yourself.


It's Free!

This tab has been rated a 3.67 out of 5 for accuracy. (9 votes)Sorry, but you must be logged in to rate this tab.
Click here to log-in, or you can click here to register.
(Registration is free)

All songs owned by corresponding publishing company. If you make copies of any song on this website, be sure to report your usage to CCLI.
Submitted by: Adam K

Hawk Nelson-The One Thing I Have Left
From:Smile It's The End Of The World
Copyright  2006 Tooth and Nail Records
Drop C# Tuning C#-G#-C#-F#-A#-D#

palm mute=...etc.
b=bend

Verse 1
Gtr. 1
F#[-7----10----5-----9----7/7-7-7-5-5-10-10-------------------]
C#[-7----10----5----10----7/7-7-7-5-5-10-10--10-10-7-10-12----]
G#[-5-----8----3-----7----5/5-5-5-3-3--8--8--10-10-7-10-12----]
C#[------------------------------------------10-10-7-10-12----]
    ..................... 

F#[-7----5-----9----10----7/7-7-7-5-5-10-10-------------------]
C#[-7----5----10----10----7/7-7-7-5-5-10-10--10-10-7-10-12----]
G#[-5----3-----7-----8----5/5-5-5-3-3--8--8--10-10-7-10-12----]
C#[------------------------------------------10-10-7-10-12----]
    .....................

F#[-7----10----5-----9----7/7-7-7-5-5-10-10-------------------]
C#[-7----10----5----10----7/7-7-7-5-5-10-10--10-10-7-10-12----]
G#[-5-----8----3-----7----5/5-5-5-3-3--8--8--10-10-7-10-12----]
C#[------------------------------------------10-10-7-10-12----]
    ..................... 

F#[-7----5-----9----10----7/7-7-7-5-5-10-10-------------------]
C#[-7----5----10----10----7/7-7-7-5-5-10-10--10-10-7-10-12----]
G#[-5----3-----7-----8----5/5-5-5-3-3--8--8--10-10-7-10-12----]
C#[------------------------------------------10-10-7-10-12----]
    .....................

Pre-Chorus
Gtr. 1
A#[---3------5------6------5--5-----]
F#[-3---3--5---5--7---5--5---5-5----]
C#[-3------5------7------5----------]
G#[-1------3------5------3----------]

A#[---3------5----------------------------]
F#[-3---3--5---5--7/7-7-7-5-5-10-10/10----]
C#[-3------5------7/7-7-7-5-5-10-10/10----]
G#[-1------3------5/5-5-5-3-3--8--8/-8----]

Chorus
Gtr. 1
F#[-3----5----7----5--5-5-3----5-----7/7/7--5/5/5--10/10/10--5-5----]
C#[-3----5----7----5--5-5-3----5-----7/7/7--5/5/5--10/10/10--5-5----]
G#[-1----3----5----3--3-3-1----3-----5/5/5--3/3/3---8/-8/-8--3-3----]
C#[-----------------------------------------------------------------]

F#[--3----5----7----5--5-5-3----5----7/7-7-7-5-5-10-10------------------]
C#[--3----5----7----5--5-5-3----5----7/7-7-7-5-5-10-10-10-10-7-10-12----]
G#[--1----3----5----3--3-3-1----3----5/5-5-5-3-3--8--8-10-10-7-10-12----]
C#[----------------------------------------------------10-10-7-10-12----]
Gtr. 2
F#[-10---12---14---12-----10----9----]
C#[--x----x----x----x------x----x----]x2
G#[--8---10---12---10------8----7----]

Verse 2
Stop 
Then
Gtr. 2
F#[-7/7-7-7-5-5-10-10------------------]
C#[-7/7-7-7-5-5-10-10-10-10-7-10-12----]
G#[-5/5-5-5-3-3--8--8-10-10-7-10-12----]
C#[-------------------10-10-7-10-12----]
Then
Gtr. 1
D#[-5/5----1/1----3/3---------------]
A#[----3/3----3/3----1/1-5/5-5/6----]
Then
Gtr. 2
F#[-7/7-7-7-5-5-10-10------------------]
C#[-7/7-7-7-5-5-10-10-10-10-7-10-12----]
G#[-5/5-5-5-3-3--8--8-10-10-7-10-12----]
C#[-------------------10-10-7-10-12----]
Then
Gtr. 1
D#[-5/5----1/1----3/3---------------]
A#[----3/3----3/3----1/1-5/5-5/6----]

Gtr. 2
D#[-10/10------8/8----------------10---10/12----]
A#[------10/10----10/10-8/8-10/10---10----------]
Then
Gtr. 2
F#[-7/7-7-7-5-5-10-10------------------]
C#[-7/7-7-7-5-5-10-10-10-10-7-10-12----]
G#[-5/5-5-5-3-3--8--8-10-10-7-10-12----]
C#[-------------------10-10-7-10-12----]
Then
Gtr. 1
D#[-5/5----1/1----3/3---------------]
A#[----3/3----3/3----1/1-5/5-5/6----]

Gtr. 2
D#[-10/10------8/8----------------10---10/12----]
A#[------10/10----10/10-8/8-10/10---10----------]
Then
Gtr. 2
F#[-7/7-7-7-5-5-10-10------------------]
C#[-7/7-7-7-5-5-10-10-10-10-7-10-12----]
G#[-5/5-5-5-3-3--8--8-10-10-7-10-12----]
C#[-------------------10-10-7-10-12----]

Pre-Chorus

Chorus 2
Gtr. 1
F#[-3----5----7----5--5-5-3----5-----7/7/7--5/5/5--10/10/10--5-5----]
C#[-3----5----7----5--5-5-3----5-----7/7/7--5/5/5--10/10/10--5-5----]
G#[-1----3----5----3--3-3-1----3-----5/5/5--3/3/3---8/-8/-8--3-3----]
C#[-----------------------------------------------------------------]

F#[--3----5----7----5--5-5-3----5----]
C#[--3----5----7----5--5-5-3----5----]
G#[--1----3----5----3--3-3-1----3----]
C#[----------------------------------]
Gtr. 2
F#[-10---12---14---12-----10----9----]
C#[--x----x----x----x------x----x----]x2
G#[--8---10---12---10------8----7----]

Bridge
Gtr. 1
F#[-7-7-7/7/7/7-7--------]
C#[---------------8-7----]x3

F#[-7-7-7/7/7/7-7--------]
C#[---------------8-8----]
G#[---------------8-8----]
C#[---------------8-8----]
Then
C#[-0----8/7-0----8/7-0----8/7-0-0-3-5-3-2----]
G#[-0----8/7-0----8/7-0----8/7-0-0-3-5-3-2----]
C#[-0----8/7-0----8/7-0----8/7-0-0-3-5-3-2----]x2
Then
A#[----------11b-----------13b-----------15b----------------]
F#[----------13b-----------14b-----------17b----------------]
C#[-0-0--0-0------0-0--0-0------0-0--0-0-----0-0-3-5-3-2----]
G#[-0-0--0-0------0-0--0-0------0-0--0-0-----0-0-3-5-3-2----]
C#[-0-0--0-0------0-0--0-0------0-0--0-0-----0-0-3-5-3-2----]
Then
F#[-----------9/9/9/5----]
C#[-0--0-0--0-x/x/x/x----]
G#[-0--0-0--0-7/7/7/3----]x3
C#[-0--0-0--0------------]

C#[-0-0-3-5-3-2--0-0-3-5-3-2-10----10-10-10-10-0-0-0-0--0-0-3-5-3-2-0--]
G#[-0-0-3-5-3-2--0-0-3-5-3-2-10----10-10-10-10-0-0-0-0--0-0-3-5-3-2-0--]
C#[-0-0-3-5-3-2--0-0-3-5-3-2-10----10-10-10-10-0-0-0-0--0-0-3-5-3-2-0--]


Tabbed by Adam K

Comments about this tab

relient nelson - 2006-04-18

hey. overall, pretty good tab. there's just a few parts where I think you are off.
ie.
d#--------------------------------------
a#----------11b-----------13b-----------15b
f#----------13b-----------14b-----------17b
c#--0-0--0-0------0-0--0-0------0-0--0-0
g#--0-0--0-0------0-0--0-0------0-0--0-0
c#--0-0--0-0------0-0--0-0------0-0--0-0

That just doesn't sound right to me. i would tab out the way I play it here, but i have to go somewhere right now, so just go check out my version of this song if you want to see how i play it.

Relient Nelson aka Relient hawk


Adam K - 2006-04-18

U have 2 listen real close. The first 11b doesn't sound right apart from the CD
13b
So play with the cd man. God bless.
Adam K


relient nelson - 2006-04-18

I played it with the cd and it still doesn't sound quite right. I think it's
a 3/13b, then, 3/14b and then, 15b on the second string.

Well whatever.


. And1 . - 2006-04-21

pretty cool tab!


fenderrock - 2006-04-25

hey relient nelson, do u like relient k? cuz u have relient in ur name.


relient nelson - 2006-04-25

Heck yes I do! Relient K + Hawk Nelson = 2 best bands in the world!


simmonds - 2006-04-26

Amen


relient nelson - 2006-04-26

Hallelujah!


fenderrock - 2006-05-01

yes yes yes relient k and hawk nelson are the best band ever! i agree with u
100%! they are my fav 2. nice choice.


tl_guitarnut - 2006-05-06

this tab is awsome, I give it a 5


5isakoolnumber - 2007-01-13

relient k and hawk nelson are my 2 favorite bands
but i now have to lead worship so i have to learn like
chris tommlin and stuff
its not so fun


Add a comment/correction

Complimentary Christian Ringtones
Dadamobile and CGR have teamed up to bring your favorite Christian artists right to your phone. Sign up today and get 10 complementary ringtones!
Tab Country
Did you know CGR has a sister site w/ country guitar tabs? Well we do! Its called Tab Country. It has a great archive with a lot of country tabs.
Rockin Tabs
Are you looking for a site that has rock guitar tabs? Then Rockintabs.com is the place for you. It is a budding site with many rock guitar tabs. Submit your tab today.
Tab Gallery
Tab Gallery has a compilation of christian, rock, and country tabs all in one place. Come visit us.