Guitar Tabs
song title    band name

Join Us Today!

Don't strum alone...
be a part of the largest online Christian music community. Browse thousands of guitar tabs and chat w/ musicians like yourself.


It's Free!

This tab has been rated a 2.00 out of 5 for accuracy. (4 votes)Sorry, but you must be logged in to rate this tab.
Click here to log-in, or you can click here to register.
(Registration is free)

All songs owned by corresponding publishing company. If you make copies of any song on this website, be sure to report your usage to CCLI.
Submitted by: RockStarPhil24

Definately one of the best songs on their new album. It's also (by far) the
hardest one to play, much less tab. It's not a song for a beginner - the main
sequence of powerchords that occurs over and over is pretty difficult to
master. It's a lot of fun to play, though, if you know what you're doing.

There's bound to be a number of mistakes in the tab, but this gives a pretty
good idea of what the song sounds like. For my sake and the sake of guitar
playing Hawk Nelson fans worldwide, ...give me feedback! I crave comments and
corrections.

Enough said. Here's the song...


* = palm mute
~ = let ring
\ = slide down




INTRO/VERSE ONE: 2x (play once, and then repeat.)

e|---------------------------------------------------------------------------|
B|---------------------------------------------------------------------------|
G|-6-6-6-6---9-9-9-9---4-4-4-4---8-8-8-8-------------------------------------|
D|-6-6-6-6---9-9-9-9---4-4-4-4---8-8-8-8-------------------------------------|
A|-4-4-4-4---7-7-7-7---2-2-2-2---6-6-6-6-------------------------------------|
E|---------------------------------------------------------------------------|
   * * * *   * * * *   * * * *   * * * *


e|---------------------------------------------------------------------------|
B|---------------------------------------------------------------------------|
G|-6-6---6-6-4-4-4---9-9-----------6-----------------------------------------|
D|-6-6---6-6-4-4-4---9-9---9-9-6-9-6-----------------------------------------|
A|-4-4---4-4-2-2-2---7-7---9-9-6-9-4-----------------------------------------|
E|-------------------------7-7-4-7-------------------------------------------|


e|---------------------------------------------------------------------------|
B|---------------------------------------------------------------------------|
G|-6-6-6-6---4-4-4-4---8-8-8-8---9-9-9-9-------------------------------------|
D|-6-6-6-6---4-4-4-4---8-8-8-8---9-9-9-9-------------------------------------|
A|-4-4-4-4---2-2-2-2---6-6-6-6---7-7-7-7-------------------------------------|
E|---------------------------------------------------------------------------|
   * * * *   * * * *   * * * *   * * * *


e|---------------------------------------------------------------------------|
B|---------------------------------------------------------------------------|
G|-6-6---6-6-4-4-4---9-9-----------6-----------------------------------------|
D|-6-6---6-6-4-4-4---9-9---9-9-6-9-6-----------------------------------------|
A|-4-4---4-4-2-2-2---7-7---9-9-6-9-4-----------------------------------------|
E|-------------------------7-7-4-7-------------------------------------------|



PRE-CHORUS

e|---------------------------------------------------------------------------|
B|---------------------------------------------------------------------------|
G|-----------------6-6-6~---------------------------6-6---6-6-4-4-4---9-9----|
D|-7-7-7~--9-9-9~--6-6-6~--9-9-9~--7-7-7~--9-9-9~---6-6---6-6-4-4-4---9-9----|
A|-7-7-7~--9-9-9~--4-4-4~--9-9-9~--7-7-7~--9-9-9~---4-4---4-4-2-2-2---7-7----|
E|-5-5-5~--7-7-7~----------7-7-7~--5-5-5~--7-7-7~----------------------------|


CHORUS


e|---------------------------------------------------------------------------|
B|---------------------------------------------------------------------------|
G|-6-6-6-6-6-6-6-6---4-4-4-4-4-4-4-4---9-9-9-9-9-9-9-9-----------------------|
D|-6-6-6-6-6-6-6-6---4-4-4-4-4-4-4-4---9-9-9-9-9-9-9-9---9-9-9-9-9-9-9-9-----|
A|-4-4-4-4-4-4-4-4---2-2-2-2-2-2-2-2---7-7-7-7-7-7-7-7---9-9-9-9-9-9-9-9-----|
E|-------------------------------------------------------7-7-7-7-7-7-7-7-----|


e|---------------------------------------------------------------------------|
B|---------------------------------------------------------------------------|
G|-6-6-6-6-6-6-6-6---4-4-4-4-4-4-4-4---6-6-6-6---4-4-4-4---9-9-9-9---4-4-4---|
D|-6-6-6-6-6-6-6-6---4-4-4-4-4-4-4-4---6-6-6-6---4-4-4-4---9-9-9-9---4-4-4---|
A|-4-4-4-4-4-4-4-4---2-2-2-2-2-2-2-2---4-4-4-4---2-2-2-2---7-7-7-7---2-2-2---|
E|---------------------------------------------------------------------------|


e|---------------------------------------------------------------------------|
B|---------------------------------------------------------------------------|
G|-6-6-6-6-6-6-6-6---4-4-4-4-4-4-4-4---9-9-9-9-9-9-9-9-----------------------|
D|-6-6-6-6-6-6-6-6---4-4-4-4-4-4-4-4---9-9-9-9-9-9-9-9---9-9-9-9-9-9-9-9-----|
A|-4-4-4-4-4-4-4-4---2-2-2-2-2-2-2-2---7-7-7-7-7-7-7-7---9-9-9-9-9-9-9-9-----|
E|-------------------------------------------------------7-7-7-7-7-7-7-7-----|


e|---------------------------------------------------------------------------|
B|---------------------------------------------------------------------------|
G|-6-6-6-6-6-6-6-6---4-4-4-4-4-4-4-4---6-6---6-6-4-4-4---9-9-----------6-----|
D|-6-6-6-6-6-6-6-6---4-4-4-4-4-4-4-4---6-6---6-6-4-4-4---9-9---9-9-6-9-6-----|
A|-4-4-4-4-4-4-4-4---2-2-2-2-2-2-2-2---4-4---4-4-2-2-2---7-7---9-9-6-9-4-----|
E|-------------------------------------------------------------7-7-4-7-------|


VERSE TWO: 3x


e|---------------------------------------------------------------------------|
B|---------------------------------------------------------------------------|
G|-6-6---6-6-4-4-4---9-9-----------6-----------------------------------------|
D|-6-6---6-6-4-4-4---9-9---9-9-6-9-6-----------------------------------------|
A|-4-4---4-4-2-2-2---7-7---9-9-6-9-4-----------------------------------------|
E|-------------------------7-7-4-7-------------------------------------------|


The riff changes each time, but it's pretty close to this:

e|---------------------------------------------------------------------------|
B|-9-9-0-0-5-5-0-0-7-7-0-0-4-4-5-5-2-2---------------------------------------|
G|---------------------------------------------------------------------------|
D|---------------------------------------------------------------------------|
A|---------------------------------------------------------------------------|
E|---------------------------------------------------------------------------|

Then:


e|---------------------------------------------------------------------------|
B|---------------------------------------------------------------------------|
G|-6-6---6-6-4-4-4---9-9-----------6-----------------------------------------|
D|-6-6---6-6-4-4-4---9-9---9-9-6-9-6-----------------------------------------|
A|-4-4---4-4-2-2-2---7-7---9-9-6-9-4-----------------------------------------|
E|-------------------------7-7-4-7-------------------------------------------|



PRE-CHORUS

e|---------------------------------------------------------------------------|
B|---------------------------------------------------------------------------|
G|-----------------6-6-6~---------------------------6-6---6-6-4-4-4---9-9----|
D|-7-7-7~--9-9-9~--6-6-6~--9-9-9~--7-7-7~--9-9-9~---6-6---6-6-4-4-4---9-9----|
A|-7-7-7~--9-9-9~--4-4-4~--9-9-9~--7-7-7~--9-9-9~---4-4---4-4-2-2-2---7-7----|
E|-5-5-5~--7-7-7~----------7-7-7~--5-5-5~--7-7-7~----------------------------|


CHORUS


e|---------------------------------------------------------------------------|
B|---------------------------------------------------------------------------|
G|-6-6-6-6-6-6-6-6---4-4-4-4-4-4-4-4---9-9-9-9-9-9-9-9-----------------------|
D|-6-6-6-6-6-6-6-6---4-4-4-4-4-4-4-4---9-9-9-9-9-9-9-9---9-9-9-9-9-9-9-9-----|
A|-4-4-4-4-4-4-4-4---2-2-2-2-2-2-2-2---7-7-7-7-7-7-7-7---9-9-9-9-9-9-9-9-----|
E|-------------------------------------------------------7-7-7-7-7-7-7-7-----|


e|---------------------------------------------------------------------------|
B|---------------------------------------------------------------------------|
G|-6-6-6-6-6-6-6-6---4-4-4-4-4-4-4-4---6-6-6-6---4-4-4-4---9-9-9-9---4-4-4---|
D|-6-6-6-6-6-6-6-6---4-4-4-4-4-4-4-4---6-6-6-6---4-4-4-4---9-9-9-9---4-4-4---|
A|-4-4-4-4-4-4-4-4---2-2-2-2-2-2-2-2---4-4-4-4---2-2-2-2---7-7-7-7---2-2-2---|
E|---------------------------------------------------------------------------|


e|---------------------------------------------------------------------------|
B|---------------------------------------------------------------------------|
G|-6-6-6-6-6-6-6-6---4-4-4-4-4-4-4-4---9-9-9-9-9-9-9-9-----------------------|
D|-6-6-6-6-6-6-6-6---4-4-4-4-4-4-4-4---9-9-9-9-9-9-9-9---9-9-9-9-9-9-9-9-----|
A|-4-4-4-4-4-4-4-4---2-2-2-2-2-2-2-2---7-7-7-7-7-7-7-7---9-9-9-9-9-9-9-9-----|
E|-------------------------------------------------------7-7-7-7-7-7-7-7-----|


e|---------------------------------------------------------------------------|
B|---------------------------------------------------------------------------|
G|-6-6-6-6-6-6-6-6---4-4-4-4-4-4-4-4-----------------------------------------|
D|-6-6-6-6-6-6-6-6---4-4-4-4-4-4-4-4-----------------------------------------|
A|-4-4-4-4-4-4-4-4---2-2-2-2-2-2-2-2-----------------------------------------|
E|---------------------------------------------------------------------------|


BRIDGE/OUTRO


e|----------------------|
B|----------------------|
G|-6~-6-6-6-6-6-6-6-----| 4x
D|------------------7-6-|
A|----------------------|
E|----------------------|


         1x                 3x                 1x
e|-----------------|-----------------|---------------------|
B|-----------------|-----------------|---------------------|
G|-----------------|-----------------|---------------------|
D|-7-7-0-0-0-0-0-0-|-7-6-0-0-0-0-0-0-|-6-7-6-4-2-2-2-2-2-2-|
A|-7-7-0-0-0-0-0-0-|-7-6-0-0-0-0-0-0-|-6-7-6-4-2-2-2-2-2-2-|
E|-5-5-2-2-2-2-2-2-|-5-4-2-2-2-2-2-2-|-4-5-4-2-0-0-0-0-0-0-|


         3x                  1x               3x            1x
e|-----------------|---------------------|-----------|---------------|
B|-----------------|---------------------|-----------|---------------|
G|-----------------|---------------------|-----------|---------------|
D|-7-6-0-0-0-0-0-0-|-6-7-6-4-2-2-2-2-2-2-|-2-2-2-2-2-|-2-2-4-7-6-4-2-|
A|-7-6-0-0-0-0-0-0-|-6-7-6-4-2-2-2-2-2-2-|-2-2-2-2-2-|-2-2-4-7-6-4-2-|
E|-5-4-2-2-2-2-2-2-|-4-5-4-2-0-0-0-0-0-0-|-0-0-0-0-0-|-0-0-2-5-4-2-0-|
                                             * *   *

               3x                             1x
e|------------------------------|----------------------------|
B|------------------------------|----------------------------|
G|--------------------8-8-8-----|----------------------------|
D|-2-2-2-2-2-2-2-2-2--------9-8-|-2-2-4-7-6-4-2-2-4-7-6-4-2~-|
A|-2-2-2-2-2-2-2-2-2------------|-2-2-4-7-6-4-2-2-4-7-6-4-2~-|
E|-0-0-0-0-0-0-0-0-0------------|-0-0-2-5-4-2-0-0-2-5-4-2-0~-|
     * *   * *   * *


     1x (staccato)
e|-------------------|-
B|-------------------|-
G|-------------------|-
D|-4-4-4-4---2-2-2-2-|-2-2-4-7-6-4-2\0
A|-4-4-4-4---2-2-2-2-|-2-2-4-7-6-4-2\0
E|-2-2-2-2---0-0-0-0-|-0-0-2-5-4-2-0\0



END

Comments about this tab

relient nelson - 2006-04-17

nice tab. I have a friend who knows Hawk Nelson's drummer (Aaron) and he told me that they play most of their songs in drop c# (C# G# C# F# A# D#)
It's like drop d with every note tuned down half a step.
I know that this song is in that tuning, because it's the only way to hit the low power chord at the end. ie:

D#--
A#--
F#--
C#--0-0-000-0-0-8-7
G#--0-0-000-0-0-8-7
C#--0-0-000-0-0-8-7

Other than that, pretty good tab. I tabbed this song too. Check it out.

Relient Nelson aka Relient Hawk


relient nelson - 2006-04-17

It is also way easier to play the verses in drop c#

Relient Nelson


simmonds - 2006-04-17

Hook me up with him


RockStarPhil24 - 2006-04-18

Dang, ya'll... my tab rating is lower than 1.00! :P


relient nelson - 2006-04-18

probly cause its not in drop d. still a good tab though


relient nelson - 2006-04-26

Okay, I just tried playing your version of this song, and something sounds really wrong at the end, maybe it's just a typo, but I can't really find any resemblance to the song. If I'm wrong Rockstar, private message me and explain. The chorus sounds off too.


RockStarPhil24 - 2006-05-06

Did you tune your guitar up first?


relient nelson - 2006-05-12

yah I put my guitar in standard tuning and the

D--0-0
A--0-0
E--2-2

thing at the end sounds weird to me.

and if you want to play the chorus, it should be



G------4----6----4----
D-7----4 8x-6 8x-4 8x-
A-7 8x-2----4----2----
E-5-------------------


Stellar_Hawk - 2006-07-11

Is it standard tuning?When I play it on standard tuning, it sounds like crap. I think it's my guitar, but I dunno. But otherwise, it's great


Add a comment/correction

Complimentary Christian Ringtones
Dadamobile and CGR have teamed up to bring your favorite Christian artists right to your phone. Sign up today and get 10 complementary ringtones!
Tab Country
Did you know CGR has a sister site w/ country guitar tabs? Well we do! Its called Tab Country. It has a great archive with a lot of country tabs.
Rockin Tabs
Are you looking for a site that has rock guitar tabs? Then Rockintabs.com is the place for you. It is a budding site with many rock guitar tabs. Submit your tab today.
Tab Gallery
Tab Gallery has a compilation of christian, rock, and country tabs all in one place. Come visit us.