Guitar Tabs
song title    band name

Join Us Today!

Don't strum alone...
be a part of the largest online Christian music community. Browse thousands of guitar tabs and chat w/ musicians like yourself.


It's Free!

This tab has been rated a 2.80 out of 5 for accuracy. (10 votes)Sorry, but you must be logged in to rate this tab.
Click here to log-in, or you can click here to register.
(Registration is free)

All songs owned by corresponding publishing company. If you make copies of any song on this website, be sure to report your usage to CCLI.
Submitted by: Missionaryman

Verse
B5   B5/F#  B5/E  B5/F#  
Refrain
G#m F# Ex2
Chorus
B F# B F# B F# B G
B F# B F# B F# B G

Comments about this tab

Missionaryman - 2006-04-19

First tab dudes can you please comment


Soulfire900 - 2006-04-19

I don't get it. I'm a beginner. Can you please make it a bit simpler??!!


whatsmyageagain - 2006-04-19

tab it with intro and then I'll vote it, as of now it's not very good sorry.


Missionaryman - 2006-04-20

The chords at the begining are the form for the tab and the tab goes like this
E-------------------------------------------------------------------------------
B-------------------------------------------------------------------------------
G---------4-----------4-------------4--------------4-------------4------------4-
D------4-----4-----4-----4-------4-----4--------4------4-------4-----4-----4---4
A---2------------------2--------------------------------------------------------
E----------------------------2---------------2---------------0-----------0-----

E---------------------------------------------
B---------------------------------------------
G---------4--------------------4--------------
D------4-----4-------------4-----4-----------
A----------------------------------------------
E----2-------------------2-----------------------
Let me know what you think <><
Oh and there is no way to simplify it sorry dude





Missionaryman - 2006-04-20

E------------------------------------------------------------------------
B-------------------------------------------------------------------------
G---------4-----------4-------------4--------------4-------------4------4-
D------4-----4-----4-----4------4-----4-------4------4----------4--4---4-4
A---2------------2--------------------------------------------------
E----------------------------2--------------2---------------0--------0-


E-------------------------------------
B-------------------------------------
G---------4--------------------4------
D------4-----4-------------4-----4----
A-------------------------------------
E----2-------------------2-------------
It should look right this time


relient nelson - 2006-04-20

Okay, sorry to tell you this, dude, but no one really likes chords for songs. If it's your first tab, tab it out. It takes longer, but it's worth it.
Keep tabbin'


Missionaryman - 2006-04-21

RN the song consists of both tab and chords the intro and verses are tab were the chorus and refain are chords but if you had listened to the song you would have figured that out.


gfg41 - 2006-04-21

Missionaryman great tab it great this is your first its quite accurrate I played it with the CD and it sounded great


relient nelson - 2006-04-23

Dude I have listened to the song. Alot! I just think tabs are easier for people to understand, and they can be more exact. Sorry if I offended you.


rockNforchrist - 2006-04-26

I think HN plays in drop d# which would make this tab too low. But if you play it in standard tuning, this sounds perfect!


rockNforchrist - 2006-04-26

Im also working on a tab for this song with all of the parts in it.


relient nelson - 2006-04-26

Hey Rockn4christ, I already submitted a full Head On Collision tab, and it's really close to what they play, so you don't have to submit yours unless you want to. Also, I have a friend who knows Hawk's drummer, and he told him that they play most of their songs in drop c# (D#A#F#C#G#C#). The only exception is when they play in an even lower tuning, drop c (D A F C G C), on a few songs in Smile, It's the End of the World.


rockNforchrist - 2006-04-27

OK relient nelson.


rockNforchrist - 2006-04-27

Oh, and in my earlier comment I meant to say they play in drop c#. I just messed up on typing.


relient nelson - 2006-04-28

kay


RKfan1 - 2006-05-01

Hey, the whole thing with the tabs vs. chords thing. Tabs are great, but chords get the job done easy, and if you know know enough about the guitar, and the song isn't crazy, like this one, chords are easy. But thats just my opinion. Thanx for the chords! sounds good. oh yeah, this is an awesome cd.


Add a comment/correction

Complimentary Christian Ringtones
Dadamobile and CGR have teamed up to bring your favorite Christian artists right to your phone. Sign up today and get 10 complementary ringtones!
Tab Country
Did you know CGR has a sister site w/ country guitar tabs? Well we do! Its called Tab Country. It has a great archive with a lot of country tabs.
Rockin Tabs
Are you looking for a site that has rock guitar tabs? Then Rockintabs.com is the place for you. It is a budding site with many rock guitar tabs. Submit your tab today.
Tab Gallery
Tab Gallery has a compilation of christian, rock, and country tabs all in one place. Come visit us.