Guitar Tabs
song title    band name

Join Us Today!

Don't strum alone...
be a part of the largest online Christian music community. Browse thousands of guitar tabs and chat w/ musicians like yourself.


It's Free!

This tab has been rated a 5.00 out of 5 for accuracy. (5 votes)Sorry, but you must be logged in to rate this tab.
Click here to log-in, or you can click here to register.
(Registration is free)

All songs owned by corresponding publishing company. If you make copies of any song on this website, be sure to report your usage to CCLI.
Submitted by: Dani_Boy

Artist: Thousand Foot Krutch
Song: Ordinary
Album: Phenomenon
Tuning: Drop D

Ordinary is not an ordinary song...
I love the quick rapping in the verses, the parts with Phaser effect and the
heavy parts with distortion. I love it all.
The other tab is quite off and excludes the Lead Guitar, so I thought that I
would tab it. It's too sweet to not have a good tab of it. Enjoy!

h = Hammer on
p = Pull off
P.M. or ... = Palm Muting
x = Scratching, heavy muting with fret hand
|--LG--| = Marks a part in a Rhythm Guitar Section that the Lead Guitar plays 


  Intro: Rhythm Guitar (Phaser effect and slight Delay effect)
G|--------5-------2-----------------------5-----------------------------|
D|--0-----5-------3-----------------0-----5-------2--------------5------|
A|--0-----3-------0-------0---3-----0-----3-------2----------------3----|
D|--0-----------------------------3-0-------------2-----------232----2--|


  Pre-Verse 1: Rhythm Guitar (Distortion)
G|------------------------------------101010109-9--5--|
D|--3210--3210--320--3210--3210--320--x-x-x-x-x-x--5--|
A|--3210--3210--320--3210--3210--320--8-8-8-8-7-7--3--|
D|--3210--3210--320--3210--3210--320------------------|
                                      |----LG---|


  Verse: Rhythm Guitar (Goes really fast)
G|----------------------------2---------------------------3-|
D|----------------------------2---------------------------3-|
A|--0-000-0---000-0-----000-0-0---000-0---000-0-----000-0-1-|
D|--0-000-0---000-0-----000-0-----000-0---000-0-----000-0---|
P.M.. ... .   ... .     ... .     ... .   ... .     ... .

G|--------------------------2-------------------------------|
D|--------------------------2-----------------------875-----|
A|--000-0---000-0-----000-0-0---000-0---000-0-----00875-----|
D|--000-0---000-0-----000-0-----000-0---000-0-----00875-----|
P.M.... .   ... .     ... .     ... .   ... .     ..


  Chorus: Rhythm Guitar
G|-------------------------------------------------------------------|
D|--0---7---0---7-3-0---7-8-----------0---7---0---7-3-0---7-8-0---0--|
A|--0---7---0---7-3-0---7-8-00008p75h70---7---0---7-3-0---7-8-0---0--|
D|--0---7---0---7-3-0---7-8-00008p75h70---7---0---7-3-0---7-8-0---0--|
P.M.                        ....

  Post-Chorus: Rhythm Guitar
G|------------------------------------|
D|--3210--3210--320--3210--3210--320--|
A|--3210--3210--320--3210--3210--320--|
D|--3210--3210--320--3210--3210--320--|


  Verse 2: Rhythm Guitar
G|--------------------------5---------------------------7-|
D|--------------------------7---------------------------8-|
A|--000-0---000-0-----000-0-5---000-0---000-0-----000-0-5-|
D|--000-0---000-0-----000-0-----000-0---000-0-----000-0---|
P.M.... .   ... .     ... .     ... .   ... .     ... .

G|--------------------------5-----------------------------|
D|--------------------------7-----------------------875---|
A|--000-0---000-0-----000-0-5---000-0---000-0-----00875---|
D|--000-0---000-0-----000-0-----000-0---000-0-----0087----|
P.M.... .   ... .     ... .     ... .   ... .     ..


Chorus x2


  Pre-Verse: Rhythm Guitar (Phaser effect again)
G|--------5-------2-----------------------5-----------------------------|
D|--0-----5-------3-----------------0-----5-------2---------------------|
A|--0-----3-------0-------0---3-----0-----3-------2---------------------|
D|--0-----------------------------3-0-------------2---------------------|


  Verse 3: Rhythm Guitar
G|--------5-------2-----------------------5-----------------------------|
D|--0-----5-------3-----------------0-----5-------2--------------5------|
A|--0-----3-------0-------0---3-----0-----3-------2----------------3----|
D|--0-----------------------------3-0-------------2-----------232----2--|

  (Distortion)
G|-------2-5-----2------------------2-5------------------------|
D|---0---2-5-----3--------------0---2-5---5-2---3-----3-----3--|
A|---0-000-3-----0--------------0-000-3---5-2-003---003---003--|
D|---0-00-----------------------0-00------5-2-003---003---003--|
P.M.   ..                         ..          ..    ..    ..
                                                              
  Verse 3: Lead Guitar (Plays only during Rhythm Guitar's distorted part)
G|-------------------5-555555777----------------5-----5-----5--|
D|-------------------x-xxxxxxxxx----------------x-----x-----x--|
A|-------------------3-333333555----------------3-----3-----3--|
D|-------------------------------------------------------------|


  Bridge 1: Rhythm Guitar
G|-------------------------------------------------------------------|
D|--xxxxxxxxxxxxxxxxxxxxxxxxxxxxxxxxxxxxxxxxxxxxxxxx8-------7----10--|
A|--xxxxxxxxxxxxxxxxxxxxxxxxxxxxxxxxxxxxxxxxxxxxxxxx8-------7---010--|
D|--xxxxxxxxxxxxxxxxxxxxxxxxxxxxxxxxxxxxxxxxxxxxxxxx8-------7---010--|
P.M.                                                            .


Chorus x2 (Second time, skip final chord)


  Bridge 2: Rhythm Guitar
G|------7--7----7---------12---12----------------7--7------------------------|
D|--0-0-00-00-0-00--10-10-1010-1010-10-10-10-5-5-55-55-5-5-5-8-8-8-8-7----8p7|
A|--0-0-00-00-0-00--10-10-1010-1010-10-10-10-5-5-55-55-5-5-5-8-8-8-8-7-7--8p7|
D|--0-0-00-00-0-00--10-10-1010-1010-10-10-10-5-5-55-55-5-5-5-8-8-8-8-7-7--8p7|
P.M.                                                                   .

G|------7--7--------------12---12----------------7--7------------------------|
D|--0-0-00-00-0-0-0-10-10-1010-1010-10-10-10-5-5-55-55-5-5-5-8-8-8-8-7----8p7|
A|--0-0-00-00-0-0-0-10-10-1010-1010-10-10-10-5-5-55-55-5-5-5-8-8-8-8-7-7--8p7|
D|--0-0-00-00-0-0-0-10-10-1010-1010-10-10-10-5-5-55-55-5-5-5-8-8-8-8-7-7--8p7|
P.M.                                                                   .


  Outro: Rhythm Guitar
G|------------------------------------------------------|
D|---3210--3210--320--3210--3210--320--3210--3210-------|
A|---3210--3210--320--3210--3210--320--3210--3210--320--|
D|---3210--3210--320--3210--3210--320--3210--3210--320--|
P.M.                                               ...


This song must be a bit boring for the Lead Guitarist. He hardly does anything
in this song, it's not like Hand Grenade or something like that. Anyway, it
definitely has two guitars since you can hear the difference in sound at those
octaves and TFK always seem to use two guitars. Hope this tab can take your
guitar playing beyond the ordinary. lol TFK ROCKS!!!
God Bless,
Daniel

Comments about this tab

Dani_Boy - 2006-04-15

One little thing. I wrote one part of the chorus like this, with a pull off:

G|----------------|
D|------------0---|
A|--00008p75h70---|
D|--00008p75h70---|
P.M.....


Do it with a slide, I think it works a lot easier:

G|--------------|
D|----------0---|
A|00008\75h70---|
D|00008\75h70---|


Dani_Boy - 2006-04-15

The second one has palm muting too, I just forgot to write it out. :)


SHARK - 2006-04-17

I dont mean to give every one of youre tabs a 5!its just that a 4 wouldnt do it justice!


Dani_Boy - 2006-04-19

I think that Rawkfist got a 4 didn't it? So we're even. lol :) Anyway, even if you rate it a 5, please tell me if you find the slightest mistake. I'm gonna make an album tab of Phenomenon, and then I want to have cleared as many mistakes as I can.


SHARK - 2006-04-19

yea well I rated this tab before I rated rawkfist and I cant find anything wrong with this.


Dani_Boy - 2006-04-20

hehe, I'm just teasing you a bit. You may rate whatever you want. I won't complain. I'm actually happy when I find a mistake, because that means I can imårove the tab.


Dani_Boy - 2006-04-20

*improve lol


SHARK - 2006-04-20

does that mean u wont be happy when I say this is pretty much 100% correct?lol.


Dani_Boy - 2006-04-21

Hahaha, I'll be happy if I find a mistake, but I'm happIER if it is 100% correct. What I don't like is mistakes that go unnoticed.


akaukal - 2006-05-01

alright this is a good tab. i give it a 5.


Add a comment/correction

Complimentary Christian Ringtones
Dadamobile and CGR have teamed up to bring your favorite Christian artists right to your phone. Sign up today and get 10 complementary ringtones!
Tab Country
Did you know CGR has a sister site w/ country guitar tabs? Well we do! Its called Tab Country. It has a great archive with a lot of country tabs.
Rockin Tabs
Are you looking for a site that has rock guitar tabs? Then Rockintabs.com is the place for you. It is a budding site with many rock guitar tabs. Submit your tab today.
Tab Gallery
Tab Gallery has a compilation of christian, rock, and country tabs all in one place. Come visit us.