Guitar Tabs
song title    band name

Join Us Today!

Don't strum alone...
be a part of the largest online Christian music community. Browse thousands of guitar tabs and chat w/ musicians like yourself.


It's Free!

This tab has not yet been rated for accuracy.Sorry, but you must be logged in to rate this tab.
Click here to log-in, or you can click here to register.
(Registration is free)

All songs owned by corresponding publishing company. If you make copies of any song on this website, be sure to report your usage to CCLI.
Submitted by: 1ness1

Hi this is my first tab here at christian guitar so please try and work with me.
Some of you are probably wondering why i'm putting this song as my first one 
considering how hard it is.  Well anyways here's what i've understood.
Drop-D tunning is used which is:  DADGBE
/=slide

Intro:
   
|-x-x-x--x-x-x-x-x--x-x-x-x-x-x-x--x---x-x-x-x-x-x-x-x--x-x-x-x-x-x-x-x-x-x-x-x-x-
|-x-x-x--x-x-x-x-x--x-x-x-x-x-x-x--x---x-x-x-x-x-x-x-x--x-x-x-x-x-x-x-x-x-x-x-x-x-
|-x-x-x--6/7-x-x-11-x-x-x-9-x-x-13/16-14-x-x-6/7-x-x-11-x-x-x-9-x-9-9-9-x-6-x-6/7-
|-0-0-0--x-x-0-0-x--0-0-0-x-0-0-x--x--x--0-0-x-x-0-0-x--0-0-0-x-0-x-x-x-0-x-0-x-x-  Repeat 4x
|-0-0-0--4/5-0-0-9--0-0-0-7-0-0-11/14-12-0-0-4/5-0-0-9--0-0-0-7-0-7-7-7-0-4-0-4/5-
|-0-0-0--x-x-0-0-x--0-0-0-x-0-0-x-x---x--0-0-x-x-0-0-x--0-0-0-x-0-x-x-x-0-x-0-x-x-

second part

|-x-x-x-x-x-x-x-x--x-x-x-x-x-x-x-x-x-x-x-x-x-x-x-x--x-x-x-x-x-x-x-x-
|-x-x-x-x-x-x-x--x-x-x-x-x-x-x-x-x-x-x-x-x-x-x-x--x-x-x-x-x-x-x-x-x-
|-x-6-x-6/7-x-x-10-x-x-x-9-x-x-6/7-x-x-x-6/7-x-x-10-x-x-x-9-x-9-9-9-
|-0-x-0-x-x-0-0-x--0-0-0-x-0-0-x-x-0-0-0-x-x-0-0-x--0-0-0-x-0-x-x-x-  Repeat this 2x
|-0-4-0-4/5-0-0-9--0-0-0-7-0-0-4/5-0-0-0-4/5-0-0-9--0-0-0-7-0-7-7-7-
|-0-x-0-x-x-0-0-x--0-0-0-x-0-0-x-x-0-0-0-x-0-0-0-x--0-0-0-x-0-x-x-x-

verse 1:

    D5    G5    C5   G5    D5   D5m I think
|---x------x-----x---------x-------x-- 
|---x------x-----x---------x-------x--
|---x------x-----5---------7-------6--
|---0------5-----5---------7-------7--
|---0------5-----3---------5-------4--
|---0------5-----x---------x-------x--

Pre Chorus:

G5     A5          B5           C5
      |-x-----------x--|
      |-x-----------x--|
      |-x-----------4--|
      |-5-----------4--|
      |-5-----------2--|
      |-5-----------x--|

Chorus:

The Low D5 G5 C5 Low D5

That's it!!.....I hope.  Well you can comment me on anything so it's ok.

Comments about this tab

No comments/corrections found. Add your own

Complimentary Christian Ringtones
Dadamobile and CGR have teamed up to bring your favorite Christian artists right to your phone. Sign up today and get 10 complementary ringtones!
Tab Country
Did you know CGR has a sister site w/ country guitar tabs? Well we do! Its called Tab Country. It has a great archive with a lot of country tabs.
Rockin Tabs
Are you looking for a site that has rock guitar tabs? Then Rockintabs.com is the place for you. It is a budding site with many rock guitar tabs. Submit your tab today.
Tab Gallery
Tab Gallery has a compilation of christian, rock, and country tabs all in one place. Come visit us.