Guitar Tabs
song title    band name

Join Us Today!

Don't strum alone...
be a part of the largest online Christian music community. Browse thousands of guitar tabs and chat w/ musicians like yourself.


It's Free!

This tab has been rated a 3.50 out of 5 for accuracy. (4 votes)Sorry, but you must be logged in to rate this tab.
Click here to log-in, or you can click here to register.
(Registration is free)

All songs owned by corresponding publishing company. If you make copies of any song on this website, be sure to report your usage to CCLI.
Submitted by: jaguar777

/=slide
*Intro
e|----------------------------------------------------------------------|
B|-------6/7-----11------9-----131614-----6/7-----11------9---9-9-9-----|
G|-------x-x-----x-------x-----x-x-x------x-x-----x-------x---x-x-x-----|
D|-0-0-0-4/5-0-0-9-0-0-0-7-0-0-111412-0-0-4/5-0-0-9-0-0-0-7-0-7-7-7-----|
A|-0-0-0-----0-0---0-0-0---0-0--------0-0-----0-0---0-0-0---0-----------|
D|-0-0-0-----0-0---0-0-0---0-0--------0-0-----0-0---0-0-0---0-----------|



*Intro cont'
e|----------------------------------------------------------------------|
B|----------------------------------------------------------------------|
G|---6---6-7-----11------9-----131614-----6-7-----11------9---9-9-9-----|
D|-0-x-0-x-x-0-0-x-0-0-0-x-0-0-x-x-x--0-0-x-x-0-0-x-0-0-0-x-0-x-x-x-----|
A|-0-4-0-4-5-0-0-9-0-0-0-7-0-0-111412-0-0-4-5-0-0-9-0-0-0-7-0-7-7-7-----|
D|-0---0-----0-0---0-0-0---0-0--------0-0-----0-0---0-0-0---0-----------|



**Sequence 1
e|----------------------------------------------------------------------|
B|----------------------------------------------------------------------|
G|-------6-7-----11------9-----6-7--------5-6-----11------9--9-9-9------|
D|-0-2-0-x-x-0-7-x-0-4-5-x-0-2-x-x--0-2-0-x-x-0-7-x-0-4-5-x--x-x-x------|2x
A|-0-2-0-4-5-0-7-9-0-4-5-7-0-2-4-5--0-2-0-4-5-0-7-9-0-4-5-7--7-7-7------|
D|-0-2-0-----0-7---0-4-5---0-2------0-2-0-----0-7---0-4-5---------------|

*Verse 1
e|-x--------------------------------------------------x-----------------|
B|-3--------------------------------------------------3-----------------|
G|-2--------------------------------------------------2-----------------|
D|-0------------------------------------5-------------0-----------------|
A|-0------------------------------------5-------------0-----------------|
D|-0------------------------------------5-------------0-----------------|
    Maybe I've been the problem, maybe I'm the one to blame


Verse 1 cont'
e|----------------------------------------------------------------------------|
B|----------------------------------------------------------------------------|
G|----------------------------------------------------7-----------------6-----|
D|------------------10--------------5-----------------7-----------------7-----|
A|------------------10--------------5-----------------7-----------------7-----|
D|------------------10--------------5-----------------7-----------------7-----|
   But even when I turn it off and blame myself, the outcome feels the same


Verse 1 con't
e|--------------------------x------------------------------------------------x----|
B|--------------------------3------------------------------------------------3----|
G|--------------------------2------------------------------------------------2----|
D|--------------------------0------------------------------5-----------------0----|
A|--------------------------0------------------------------5-----------------0----|
D|--------------------------0------------------------------5-----------------0----|
Gtr 2
e|--------------------------------------------------------------------------------|
B|--------------------------------------------------------------------------------|
G|--------------------------14-------------------------------------16-----19--14--|
D|--------------------------x--------------------------------------x------x---x---|
A|--------------------------12-------------------------------------14-----17--12--|
D|--------------------------------------------------------------------------------|
    I've been thinkin maybe I've been partly cloudy, maybe I'm the chance of rain


   
Verse 1 cont'
e|--------------------------------------------------------------------------------|
B|--------------------------------------------------------------------------------|
G|-----------------------------------------------7-----------------6--------------|
D|----------------10-----------5-----------------7-----------------7--------------|
A|----------------10-----------5-----------------7-----------------7--------------|
D|----------------10-----------5-----------------7-----------------7--------------|
Gtr 2
e|--------------------------------------------------------------------------------|
B|--------------------------------------------------------------------------------|
G|-16---------19--17-----------12----------------9--------------------------------|
D|-x----------x---x------------x-----------------x--------------------------------|
A|-14---------17--15-----------10----------------7--------------------------------|
D|--------------------------------------------------------------------------------|
    And maybe I'm overcast and maybe all my luck's washed down the drain


Verse 1 cont'
e|--------------------------------------------------------------------------------|
B|--------------------------------------------------------------------------------|
G|--------------------------------------------------------------------------------|
D|--------------------------7---------9-----------------11--------12--------------|
A|--------------------------5---------7-----------------9---------10--------------|
D|--------------------------5---------7-----------------9---------10--------------|
    I've been thinkin 'bout ev'ryone, ev'ryone you look so lonely


*Chorus
Gtr 1
e|-------------------------x------------------------------------------------------|
B|-------------------------3------------------------------------------------------|
G|-------------------------2------------------------------------------------------|
D|-------------------------0---------------------------5--------------------------|
A|-------------------------0---------------------------5--------------------------|
D|-------------------------0---------------------------5--------------------------|
Gtr 2
e|--------------------------------------------------------------------------------|
B|--------------------------------------------------------------------------------|
G|-------------------------119-7-2---------------------119-7----------------------|
D|-------------------------x-x-x-0---------------------x-x-x-5--------------------|
A|-------------------------9-7-5-0---------------------9-7-5-5--------------------|
D|-----------------------------------------------------------5--------------------|
    But when I look at the sta--rs, when I look at the stars


Chorus cont'
Gtr 1
e|--------------------------------------------------------------------------------|
B|--------------------------------------------------------------------------------|
G|----------------------------------------------------6-7-----11------9--9-9-9----|
D|--------------------10----5-------------------0-2-0-x-x-0-7-x-0-4-5-x--x-x-x----|
A|--------------------10----5-------------------0-2-0-4-5-0-7-9-0-4-5-7--7-7-7----|
D|--------------------10----5-------------------0-2-0-----0-7---0-4-5-------------|
Gtr 3
e|--------------------------------------------------------------------------------|
B|--------------------------------------------------------------------------------|
G|--------------------119-7-------------------------------------------------------|
D|--------------------x-x-x-5-----------------------------------------------------|
A|--------------------9-7-5-5-----------------------------------------------------|
D|--------------------------5-----------------------------------------------------|
    When I look at the sta--rs, I see someone else                When I look at the

Chorus cont'
Gtr 1
e|--------------------------------------------------------------------------------|
B|--------------------------------------------------------------------------------|
G|---------------------7----------------------------------------------------------|
D|--5------------2-----7-----------------***Play Sequence 1 once------------------|
A|--5------------2-----7----------------------------------------------------------|
D|--5------------2-----7----------------------------------------------------------|
Gtr 2
e|--------------------------------------------------------------------------------|
B|--------------------------------------------------------------------------------|
G|--119-7--------119-7-7----------------------------------------------------------|
D|--x-x-x-5------x-x-x-7----------------------------------------------------------|
A|--9-7-5-5------9-7-5-7----------------------------------------------------------|
D|--------5------------7----------------------------------------------------------|
    Sta--rs, the sta--rs, I feel like myself


*Verse 2
Gtr 1
e|-x--------------------------------------------------x---------------------------|
B|-3--------------------------------------------------3---------------------------|
G|-2--------------------------------------------------2---------------------------|
D|-0--------------------------------------5-----------0---------------------------|
A|-0--------------------------------------5-----------0---------------------------|
D|-0--------------------------------------5-----------0---------------------------|
Gtr 2
e|--------------------------------------------------------------------------------|
B|--------------------------------------------------------------------------------|
G|-14------------------------------------------16-19--14--------------------------|
D|-x-------------------------------------------x--x---x---------------------------|
A|-12------------------------------------------14-17--12--------------------------|
D|--------------------------------------------------------------------------------|
    Stars looking at our planet, watching entropy and pain


Verse 2 cont'
Gtr 1
e|--------------------------------------------------------------------------------|
B|--------------------------------------------------------------------------------|
G|---------------------------------------------------7-----------------6----------|
D|---------------------10-------------5--------------7-----------------7----------|
A|---------------------10-------------5--------------7-----------------7----------|
D|---------------------10-------------5--------------7-----------------7----------|
Gtr 2
e|--------------------------------------------------------------------------------|
B|--------------------------------------------------------------------------------|
G|-16---------19-------17-------------12-------------9----------------------------|
D|-x----------x--------x--------------x--------------x----------------------------|
A|-14---------17-------15-------------10-------------7----------------------------|
D|--------------------------------------------------------------------------------|
    And maybe start to wonder how the chaos in our lives could pass as sane


Verse 2 cont'
Gtr 1
e|------------------------------x------------------------------------------x------|
B|------------------------------3------------------------------------------3------|
G|------------------------------2------------------------------------------2------|
D|------------------------------0---------------------------5--------------0------|
A|------------------------------0---------------------------5--------------0------|
D|------------------------------0---------------------------5--------------0------|
Gtr 2
e|--------------------------------------------------------------------------------|
B|--------------------------------------------------------------------------------|
G|------------------------------14---------------------------------16---19-14-----|
D|------------------------------x----------------------------------x----x--x------|
A|------------------------------12---------------------------------14---17-12-----|
D|--------------------------------------------------------------------------------|
    I've been thinkin 'bout the meaning of resistance, of a hope beyond my own


Verse 2 cont'
Gtr 1
e|--------------------------------------------------------------------------------|
B|--------------------------------------------------------------------------------|
G|-------------------------------------------7----------------6-------------------|
D|-------------------10-----------5----------7----------------7-------------------|
A|-------------------10-----------5----------7----------------7-------------------|
D|-------------------10-----------5----------7----------------7-------------------|
Gtr 2
e|--------------------------------------------------------------------------------|
B|--------------------------------------------------------------------------------|
G|-16---------19-----17-----------12---------9------------------------------------|
D|-x----------x------x------------x----------x------------------------------------|
A|-14---------17-----15-----------10---------7------------------------------------|
D|--------------------------------------------------------------------------------|
    And suddenly the infinite and penitent begin to look like home

Gtr 1
e|--------------------------------------------------------------------------------|
B|--------------------------------------------------------------------------------|
G|--------------------------------------------------------------------------------|
D|--------------------------7---------9-----------------11--------12--------------|
A|--------------------------5---------7-----------------9---------10--------------|
D|--------------------------5---------7-----------------9---------10--------------|
    I've been thinkin 'bout ev'ryone, ev'ryone you look so empty


*Chorus
Gtr 1
e|-------------------------x------------------------------------------------------|
B|-------------------------3------------------------------------------------------|
G|-------------------------2------------------------------------------------------|
D|-------------------------0---------------------------5--------------------------|
A|-------------------------0---------------------------5--------------------------|
D|-------------------------0---------------------------5--------------------------|
Gtr 2
e|--------------------------------------------------------------------------------|
B|--------------------------------------------------------------------------------|
G|-------------------------119-7-2---------------------119-7----------------------|
D|-------------------------x-x-x-0---------------------x-x-x-5--------------------|
A|-------------------------9-7-5-0---------------------9-7-5-5--------------------|
D|-----------------------------------------------------------5--------------------|
    But when I look at the sta--rs, when I look at the stars


Chorus cont'
Gtr 1
e|--------------------------------------------------------------------------------|
B|--------------------------------------------------------------------------------|
G|----------------------------------------------------6-7-----11------9--9-9-9----|
D|--------------------10----5-------------------0-2-0-x-x-0-7-x-0-4-5-x--x-x-x----|
A|--------------------10----5-------------------0-2-0-4-5-0-7-9-0-4-5-7--7-7-7----|
D|--------------------10----5-------------------0-2-0-----0-7---0-4-5-------------|
Gtr 2
e|--------------------------------------------------------------------------------|
B|--------------------------------------------------------------------------------|
G|--------------------119-7---------------------------6-7-----11------9--9-9-9----|
D|--------------------x-x-x-5-------------------0-2-0-x-x-0-7-x-0-4-5-x--x-x-x----|
A|--------------------9-7-5-5-------------------0-2-0-4-5-0-7-9-0-4-5-7--7-7-7----|
D|--------------------------5-------------------0-2-0-----0-7---0-4-5-------------|
    When I look at the sta--rs, I see someone else                 When I look at the


Gtr 1,2
e|--------------------------------------------------------------------------------|
B|--------------------------------------------------------------------------------|
G|---------------------7----------------------------------------------------------|
D|--5------------2-----7-----------------------------***Play Sequence 1 once------|
A|--5------------2-----7----------------------------------------------------------|
D|--5------------2-----7----------------------------------------------------------|
Gtr 3
e|--------------------------------------------------------------------------------|
B|--------------------------------------------------------------------------------|
G|--119-7--------119-7-7----------------------------------------------------------|
D|--x-x-x-5------x-x-x-7----------------------------------------------------------|
A|--9-7-5-5------9-7-5-7----------------------------------------------------------|
D|--------5------------7----------------------------------------------------------|
    Sta--rs, the sta--rs, I feel like myself... YEAH!!!


Chorus cont'
Gtr 1
e|--------------------------------------------------------------------------------|
B|--------------------------------------------------------------------------------|
G|-----------------6-7-----11------9--9-9-9---------------------------------------|
D|--5--4--7--0-2-0-x-x-0-7-x-0-4-5-x--x-x-x--5--4--7------------------------------|
A|--5--4--7--0-2-0-4-5-0-7-9-0-4-5-7--7-7-7--5--4--7------------------------------|
D|--5--4--7--0-2-0-----0-7---0-4-5-----------5--4--7------------------------------|
    Sta--rs                                  Sta--rs


Chorus cont'
Gtr 1
e|--------------------------------------------------------------------------------|
B|--------------------------------------------------------------------------------|
G|------------------------------------4-------------------------------------------|
D|-7---------9-----------------7------5---7-------------9-----------------11---12-|
A|-5---------7-----------------4------5---5-------------7-----------------9----10-|
D|-5---------7-----------------4------5---5-------------7-----------------9----10-|
   Ev'ryone, ev'ryone you feel so lonely, ev'ryone yeah ev'ryone you feel so empty


Chorus cont'
All Gtr
e|--------------------------------------------------------------------------------|
B|--------------------------------------------------------------------------------|
G|--------------------------------------------------------------------------------|
D|--------------------------------------------------------------------------------|
A|--------------------------------------------------------------------------------|
D|--------------------------------------------------------------------------------|
   When I look at the sta--rs, when I look at the stars,


Gtr 1
e|--------------------------------------------------------------------------------|
B|--------------------------------------------------------------------------------|
G|----------------------------------------------------6-7-----11------9-----------|
D|--------------------10----5-------------------0-2-0-x-x-0-7-x-0-4-5-x-2-2-2-----|
A|--------------------10----5-------------------0-2-0-4-5-0-7-9-0-4-5-7-2-2-2-----|
D|--------------------10----5-------------------0-2-0-----0-7---0-4-5---2-2-2-----|
Gtr 2
e|--------------------------------------------------------------------------------|
B|--------------------------------------------------------------------------------|
G|----------------------------------------------------6-7-----11------9-----------|
D|--------------------10----12------------------0-2-0-x-x-0-7-x-0-4-5-x-2-2-2-----|
A|--------------------10----12------------------0-2-0-4-5-0-7-9-0-4-5-7-2-2-2-----|
D|--------------------10----12------------------0-2-0-----0-7---0-4-5---2-2-2-----|
   When I look at the sta--rs, I feel like myself                 When I look at the


Chorus cont'
Gtr 1
e|--------------------------------------------------------------------------------|
B|--------------------------------------------------------------------------------|
G|--------------------7-----------------------------------------------------------|
D|-5------------2-----7-----------------------------------------------------------|
A|-5------------2-----7-----------------------------------------------------------|
D|-5------------2-----7-----------------------------------------------------------|
   Sta--rs, the sta--rs,


Chorus cont' 
Gtr 1
e|--------------------------------------------------------------------------------|
B|--------------------------------------------------------------------------------|
G|-------------------6-7-----11------9-----6-7--------6-7-----11------9--9-9-9----|
D|-------------0-2-0-x-x-0-7-x-0-4-5-x-0-2-x-x--0-2-0-x-x-0-7-x-0-4-5-x--x-x-x----|
A|-------------0-2-0-4-5-0-7-9-0-4-5-7-0-2-4-5--0-2-0-4-5-0-7-9-0-4-5-7--7-7-7----|
D|-------------0-2-0-----0-7---0-4-5---0-2------0-2-0-----0-7---0-4-5-------------|
   I see someone                                                              AHHHH!!!


Chorus cont'
Gtr 1
e|--------------------------------------------------------------------x-----------|
B|--------------------------------------------------------------------3-----------|
G|-------6-7-----11------9-----6-7--------6-7-----11------9-----6-7---2-----------|
D|-0-2-0-x-x-0-7-x-0-4-5-x-0-2-x-x--0-2-0-x-x-0-7-x-0-4-5-x-0-2-x-x---0-*ring out*|
A|-0-2-0-4-5-0-7-9-0-4-5-7-0-2-4-5--0-2-0-4-5-0-7-9-0-4-5-7-0-2-4-5---0-----------|
D|-0-2-0-----0-7---0-4-5---0-2------0-2-0-----0-7---0-4-5---0-2-------0-----------|
Gtr 2
e|-x-----x---------x-----x----------x-------x-----x--x------x---------x-----------|
B|-x-----x---------x-----x----------x-------x-----x--x------x---------x-----------|
G|-16----14--------21----19---------14------12----11-19-----12--------9-----------|
D|-x-----x---------x-----x----------x-------x-----x--x------x---------x-*ring out*|
A|-14----12--------19----17---------12------10----9--17-----10--------7-----------|
D|-x-----x---------x-----x----------x-------x-----x--x------x---------0-----------|

Comments about this tab

relient nelson - 2006-06-04

Dude, NO FULL LYRICS!!


Add a comment/correction

Complimentary Christian Ringtones
Dadamobile and CGR have teamed up to bring your favorite Christian artists right to your phone. Sign up today and get 10 complementary ringtones!
Tab Country
Did you know CGR has a sister site w/ country guitar tabs? Well we do! Its called Tab Country. It has a great archive with a lot of country tabs.
Rockin Tabs
Are you looking for a site that has rock guitar tabs? Then Rockintabs.com is the place for you. It is a budding site with many rock guitar tabs. Submit your tab today.
Tab Gallery
Tab Gallery has a compilation of christian, rock, and country tabs all in one place. Come visit us.