Guitar Tabs
song title    band name

Join Us Today!

Don't strum alone...
be a part of the largest online Christian music community. Browse thousands of guitar tabs and chat w/ musicians like yourself.


It's Free!

This tab has not yet been rated for accuracy.Sorry, but you must be logged in to rate this tab.
Click here to log-in, or you can click here to register.
(Registration is free)

All songs owned by corresponding publishing company. If you make copies of any song on this website, be sure to report your usage to CCLI.
Submitted by: nweiss

Song: Wolf in the Bend - Keyboard Solo (tabbed for the guitar)
Artist: Joy Electric
Album: Hello, Mannequin
Copyright  2004 Tooth & Nail Records



The notes in this tab are exactly the same as in the song (minus one
octave, I believe), but I didn't perfect the timing. It shouldn't be
too hard to figure out. It's fairly easy to play, but it takes a bit
of practice and skill to play it anywhere near the speed of the actual
keyboard solo on the CD (set your drum machine to 120 BPMs if you don't
have access to the CD). This was a fun solo to tab, and it is equally
fun to play. Enjoy!


(begins at ~2:20.74)
E|----------------------------------------------------
B|----------------------------------------------------
G|7-----------------------------8-------------------5-
D|--5-7-8-7-5-7-8-7-5---5-8---5-----5-8-7-5-8-7-5-7---
A|--------------------6-----6-----6-------------------
E|----------------------------------------------------

|--------------------------------------------------------
|--------------------------------------------------------
|7---------------5---7-5-7-8-10--8-10-8--7-8-7--5-7-5-3-2
|--5-8-7-8-7---7---7-------------------------------------
|------------8-------------------------------------------
|--------------------------------------------------------

|----------------------------------------------------
|----------------------------------------------------
|7-----------------------------8-------------------5-
|--5-7-8-7-5-7-8-7-5---5-8---5-----5-8-7-5-8-7-5-7---
|--------------------6-----6-----6-------------------
|----------------------------------------------------

|--------------------------------------------------------
|--------------------------------------------------------
|7---------------5---7-5-7-8-10--8-10-8--7-8-7--5-7-5-3-2
|--5-8-7-8-7---7---7-------------------------------------
|------------8-------------------------------------------
|--------------------------------------------------------


|------------2---2---2---3-----3-----3---5---5-3-5-6-5-3-
|3----3---3----3---3-------3-----3-----3---3-------------
|---2---2--------------------2-----2---------------------
|--------------------------------------------------------
|--------------------------------------------------------
|--------------------------------------------------------


|--3---1------------------5-6-5-3---1------
|3---3----3-4-3-4-3---------------3---4-3--
|-----------------------------------------7
|------------------------------------------
|------------------------------------------
|------------------------------------------

|--3---1------------------5-6-5-3---1------
|3---3----3-4-3-4-3---------------3---4-3--
|-----------------------------------------7
|------------------------------------------
|------------------------------------------
|------------------------------------------


|---------2----2---3----3---5--6
|3----3------3---3----2---3-----
|---2---2-----------------------
|-------------------------------
|-------------------------------
|-------------------------------
(ends at ~3:00.76)

Comments about this tab

No comments/corrections found. Add your own

Complimentary Christian Ringtones
Dadamobile and CGR have teamed up to bring your favorite Christian artists right to your phone. Sign up today and get 10 complementary ringtones!
Tab Country
Did you know CGR has a sister site w/ country guitar tabs? Well we do! Its called Tab Country. It has a great archive with a lot of country tabs.
Rockin Tabs
Are you looking for a site that has rock guitar tabs? Then Rockintabs.com is the place for you. It is a budding site with many rock guitar tabs. Submit your tab today.
Tab Gallery
Tab Gallery has a compilation of christian, rock, and country tabs all in one place. Come visit us.