Guitar Tabs
song title    band name

Join Us Today!

Don't strum alone...
be a part of the largest online Christian music community. Browse thousands of guitar tabs and chat w/ musicians like yourself.


It's Free!

This tab has been rated a 3.67 out of 5 for accuracy. (3 votes)Sorry, but you must be logged in to rate this tab.
Click here to log-in, or you can click here to register.
(Registration is free)

All songs owned by corresponding publishing company. If you make copies of any song on this website, be sure to report your usage to CCLI.
Submitted by: RockStarPhil24

This is, without a doubt, one of my favorite songs on the album. It's got a 
great rythme to it, and it's a lot of fun to play. This is my first attempt
tabbing on the site, so bear with me and feel free to add any corrections and
point out mistakes.

Guitar Two (playing the riffs) has not been included. I suck at little solos,
and power chords are a whole lot more fun anyway. I may add the background part
later.

Enjoy - and God Bless! :D

------------------------------------------------------------------------------

~ Standard Tuning ~


INTRO - first 3 of each chord done in staccato, last 2 in quick succession

e|---------------------------------------------------------------------------|
B|---------------------------------------------------------------------------|
G|-5-5-5-55--------------5-5-5-5-55------------------------------------------|
D|-5-5-5-55---3-3-3-33---5-5-5-5-55---5-5-5-55-------------------------------|
A|-3-3-3-33---3-3-3-33---3-3-3-3-33---5-5-5-55-------------------------------|
E|------------1-1-1-11----------------3-3-3-33-------------------------------|


PRE-VERSE - almost identical to the above, only a different ending and without
staccato.

e|---------------------------------------------------------------------------|
B|---------------------------------------------------------------------------|
G|-5-5-5-55--------------5-5-5-5-55--------------5-5-5-55--------------------|
D|-5-5-5-55---3-3-3-33---5-5-5-5-55---5-5-5-55---3-3-5-55---3-3-3~---2~---3~-|
A|-3-3-3-33---3-3-3-33---3-3-3-3-33---5-5-5-55---3-3-3-33---3-3-3~---2~---3~-|
E|------------1-1-1-11----------------3-3-3-33--------------1-1-3~---0~---1~-|


VERSE 1 - starts with bass solo, then continues with staccato:

e|---------------------------------------------------------------------------|
B|---------------------------------------------------------------------------|
G|-5-5-5-55------------5-5-5-5-55------------5-5-5-55------------------------|
D|-5-5-5-55--3-3-3-33--5-5-5-5-55--5-5-5-55--5-5-5-55--3-3-3-33--------------|
A|-3-3-3-33--3-3-3-33--3-3-3-3-33--5-5-5-55--3-3-3-33--3-3-3-33--------------|
E|-----------1-1-1-11--------------3-3-3-33------------1-1-1-11--------------|

e|---------------------------------------------------------------------------|
B|---------------------------------------------------------------------------|
G|-5~---4~---5-5-5-5---------------------------------------------------------|
D|-5~---4~---5-5-5-5---------------------------------------------------------|
A|-3~---2~---3-5-5-5---------------------------------------------------------|
E|---------------------------------------------------------------------------|


CHORUS - Same as Pre-verse, x2

e|---------------------------------------------------------------------------|
B|---------------------------------------------------------------------------|
G|-5-5-5-55--------------5-5-5-5-55--------------5-5-5-55--------------------|
D|-5-5-5-55---3-3-3-33---5-5-5-5-55---5-5-5-55---3-3-5-55---3-3-3~---2~---3~-|
A|-3-3-3-33---3-3-3-33---3-3-3-3-33---5-5-5-55---3-3-3-33---3-3-3~---2~---3~-|
E|------------1-1-1-11----------------3-3-3-33--------------1-1-3~---0~---1~-|



VERSE 2 - Guitar 2 plays a little bit in the background, nothing for Guitar 1



CHORUS - same as before. (x2)

e|---------------------------------------------------------------------------|
B|---------------------------------------------------------------------------|
G|-5-5-5-55--------------5-5-5-5-55--------------5-5-5-55--------------------|
D|-5-5-5-55---3-3-3-33---5-5-5-5-55---5-5-5-55---3-3-5-55---3-3-3~---2~---3~-|
A|-3-3-3-33---3-3-3-33---3-3-3-3-33---5-5-5-55---3-3-3-33---3-3-3~---2~---3~-|
E|------------1-1-1-11----------------3-3-3-33--------------1-1-3~---0~---1~-|


BRIDGE

e|---------------------------------------------------------------------------|
B|---------------------------------------------------------------------------|
G|-5~--------5~--------5~----------------------------------------------------|
D|-5~---3~---5~---5~---5~---3~---2~---3~-------------------------------------|
A|-3~---3~---3~---5~---3~---3~---2~---3~-------------------------------------|
E|------1~--------3~--------1~---0~---1~-------------------------------------|



OUTRO - same as chorus, but with a slightly different ending...

e|---------------------------------------------------------------------------|
B|---------------------------------------------------------------------------|
G|-5-5-5-55--------------5-5-5-5-55--------------5-5-5-55--------------------|
D|-5-5-5-55---3-3-3-33---5-5-5-5-55---5-5-5-55---3-3-5-55---3-3-3~---2~---3~-|
A|-3-3-3-33---3-3-3-33---3-3-3-3-33---5-5-5-55---3-3-3-33---3-3-3~---2~---3~-|
E|------------1-1-1-11----------------3-3-3-33--------------1-1-3~---0~---1~-|

e|---------------------------------------------------------------------------|
B|---------------------------------------------------------------------------|
G|-5-5-5-55--------------5-5-5-5-55--------------5-5-5-55--------------------|
D|-5-5-5-55---3-3-3-33---5-5-5-5-55---5-5-5-55---3-3-5-55---3-3-3~-----------|
A|-3-3-3-33---3-3-3-33---3-3-3-3-33---5-5-5-55---3-3-3-33---3-3-3~-----------|
E|------------1-1-1-11----------------3-3-3-33--------------1-1-3~-----------|


e|---------------------------------------------------------------------------|
B|---------------------------------------------------------------------------|
G|---------------------------------------------------------------------------|
D|-2~---3~-3~---2~-----------------------------------------------------------|
A|-2~---3~-3~---2~-----------------------------------------------------------|
E|-0~---1~-1~---0~-----------------------------------------------------------|




That's it... have fun with it!

Comments about this tab

akaukal - 2006-04-13

YEAHHHHHHHHHHHHHHHHHHHHHHHHHH!!!!!!!!1st perfect tab of the new album!!!!!!!!awesome job!!!!!!!!!!!!1111


relient nelson - 2006-04-17

Hey. Nice tab dude, but this song is in drop d with each string tuned down a half-step. So the strings become C# G# C# F# A# D#

If you guys want to see another Hawk Nelson song tab, check out "The One Thing I Have Left" I submitted it yesterday, so it ought to be on the site pretty soon.

Jesus ROCKS MY SOCKS (and so does HAWK)


Hawk_Nelson89 - 2006-04-17

Great Tab, but what about the lead intro part??


RockStarPhil24 - 2006-04-17

Yeah, it occurred to me after I had posted the tab that it sounded just a little off. If they drop tuned it, that would make sense. Thanks for the correction!

As for the lead riff, I didn't bother with that. Hawk Nelson uses two guitar pieces for their song, cause it's impossible to play both parts at once. I just tabbed the power chords. I may add the riff a little later.


music_dude01 - 2006-04-20

--------------------------------------------------------------------
---------------------------------5-5v-------------------------------
5-5-5-5-7b-7-5v--5-5-5-5-7b-7-5v----5-5-5-5-7b-7-5----------5h7p5v
----------------5v-----------------------------------7-5v-7-5-------
----------------------------------------------------------7---------
----------------------------------------------------------5---------
b=bend, v=vib, h=hammer on, p=pull off,
I hope you guys injoy I just got it.


relient nelson - 2006-04-27

I think my next project is going to be tabbing this song in drop c, with the solos and stuff. If you guys want me to tab this song, private message me and say so.


rockNforchrist - 2006-04-27

Does HN play Hello in drop c or drop c#?


rockNforchrist - 2006-04-27

Does HN play Hello in drop c or drop c#?


relient nelson - 2006-05-03

I think they play this song in drop c, because it's way easier to play the solos in drop c, than it is in drop c#


xDisconnektiex - 2006-05-04

good tab... but what about the solo? how do you guys play it? i do it in standard tuning.


relient nelson - 2006-05-08

drop c


rockNforchrist - 2006-05-18

I tabbed this song for myself in drop c# so I was just wondering. Im not gonna submit it 'cause relient nelson is submitting one.


~Hawk_Rock~ - 2006-05-22

Hey relient hawk....keep up the good work with the tabs....i cant wait tell u tab HELLO....o and rockin for christ PLZ sumbit ur verson of HELLO!!....ty again guys


Micahw1989 - 2006-05-25

hey does anyone know where i can find the bass tab to this song? e-mail me if ya do please! micah927@msn.com oh nice tab by the way


ChurchPunk88 - 2006-07-15

Hey! I think the C5 your playing should be B5, it sounds MUCH better on an Amp.
so turn

5 into 4
5 4
3 2

That sounds so much better... but that's just me...

Jimmy M.
www.myspace.com/coldironband


rockNforchrist - 2006-08-24

Hey if anyone's wondering about the lead intro guitar you can check my tab for that part. I think its pretty accurate.


Godsamazinggirl - 2006-09-12

Ummmmmmmmm... Ok does anyone know the chords for this song and for Fourteen? If so email them to me at godsgirllalala20@yahoo.com ok!


hawkNfan94 - 2006-09-28

That was a freakin amazing tab my band played it at a church concert it was sweet! do u got any other tabs?


cakinman - 2008-02-08

you forgot the key change, after the bridge/kazoo solo part it goes up a whole step(two frets)


puppetman360 - 2008-06-27

dude, your the only commenter in like 2008. Rawk on!


Add a comment/correction

Complimentary Christian Ringtones
Dadamobile and CGR have teamed up to bring your favorite Christian artists right to your phone. Sign up today and get 10 complementary ringtones!
Tab Country
Did you know CGR has a sister site w/ country guitar tabs? Well we do! Its called Tab Country. It has a great archive with a lot of country tabs.
Rockin Tabs
Are you looking for a site that has rock guitar tabs? Then Rockintabs.com is the place for you. It is a budding site with many rock guitar tabs. Submit your tab today.
Tab Gallery
Tab Gallery has a compilation of christian, rock, and country tabs all in one place. Come visit us.