Guitar Tabs
song title    band name

Join Us Today!

Don't strum alone...
be a part of the largest online Christian music community. Browse thousands of guitar tabs and chat w/ musicians like yourself.


It's Free!

This tab has been rated a 4.00 out of 5 for accuracy. (2 votes)Sorry, but you must be logged in to rate this tab.
Click here to log-in, or you can click here to register.
(Registration is free)

All songs owned by corresponding publishing company. If you make copies of any song on this website, be sure to report your usage to CCLI.
Submitted by: guitar_freakk09

Artist: Superchic[k]
Song: It's On

Hey yal. I had to tab it myself because the other tab was missing lots of key
parts to the song, and it didnt really sound right. so here is my version and 
i hope yal like it. GOD BLESS!!!!!


x = palm mute



Intro 



U play each power chord several times, listen to the song for the rythmn.


Guitar 1

E--------------------[------]
B--------------------[------]
G--------------------[------]
D--7--6--11----------[--7---]
A--7--6--11---(x4)---[--7---]
E--5--4--9-----------[--5---]


Guitar 2 comes in after the 3rd time.

E-----------------------------------------------
B-----------------------------------------------
G-----------------------------------------------
D-----------------------------------------------
A------55------44------55-----------------------
E--5-5-55--4-4-44--5-5-55----4/5-4/5-4/5-4/5----




verse 1

E------------------
B------------------
G------------------
D--7--6--4--6------    (x2)   Listen to song for rythym   
A--7--6--4--6------
E--5--4--2--4------
   x  x  x  x





Chorus 1

E---------------
B---------------
G---------------
D--7--6--4--6---         (x2)
A--7--6--4--6---
E--5--4--2--4---




Afterchorus


E-----------
B-----------
G-----6-----
D--7--6-----    (x2)
A--7--4-----
E--5--------



verse 2


E------------------
B------------------
G------------------
D--7--6--4--6------    (x2)   Listen to song for rythym   
A--7--6--4--6------
E--5--4--2--4------
   x  x  x  x




chorus 2


E---------------
B---------------
G---------------
D--7--6--4--6---         (x2)
A--7--6--4--6---
E--5--4--2--4---



Afterchorus


E-----------
B-----------
G-----6-----
D--7--6-----    (x2)
A--7--4-----
E--5--------



Bridge


E-----------------------------------------------
B--2-2-3-3-5--2-2-3-5-5--7-2-2-----3-3-2-0-2----
G------------------------------2-2--------------   (x4)
D-----------------------------------------------  
A-----------------------------------------------
E-----------------------------------------------

Guitar 2 comes in after the second time


Guitar 2


E------------------
B------------------
G------------------
D-7--6--4--6-------
A-7--6--4--6-------
E-5--4--2--4-------


Chorus 3

E---------------
B---------------
G---------------
D-7--6--4--6----
A-7--6--4--6----
E-5--4--2--4----


Afterchorus 3


Guitar 1



E--------------------------------------
B--2-2-2-2-0-0-0-0-2-2-2-3-3-3--3-0-2--
G-------------------------------------- (x3)
D--------------------------------------  
A--------------------------------------
E--------------------------------------


Guitar 2 comes in aftr the 1first time


guitar 2


E-------------------------------
B-------------------------------
G-------------------------------
D--7--6--4--6---(x2)--7---------
A--7--6--4--6---------7 let it ring
E--5--4--2--4---------5---------



Ending


E---------------
B---------------
G--0-2-3-2-5----
D---------------   (x3)
A---------------
E---------------





Well there u have hope yal like it. This version sounds more complete than 
the other. ok well God BLess ALL of yAl. Superchic[k] Rocks!!!!!

Tabbed by guitar_freakk09

If u have any questions email me at guitargeek32@yahoo.com







Comments about this tab

guitar_freakk09 - 2006-04-15

i forgot to put this on the tab on the afterchorus so here is the correction.

Afterchorus


E-----------------------
B-----------------------
G-----6-----------------
D--7--6-----(x2)-7------
A--7--4----------7 let it ring
E--5-------------5-------


Dani_Boy - 2006-05-01

This tab's not bad, but it lacks a lot. Not only in not writing out the strumming, it's got some mistakes.


Dani_Boy - 2006-05-01

I voted a 3. Pretty good job, keep it coming!


guitar_freakk09 - 2006-05-04

Actually it's not bad at all b/c i play it with the song and it's pretty
much 100% correct.


guitar_freakk09 - 2006-05-17

hey guys
i figured out the chorus i think this sounds better


E--------------------------------------------------------------
B--------------------------------------------------------------
G--------------------------------------------------------------
D-7-7-7-7-7-7-7-7--2-2-2-2-2-2-2-2--4-4-4-4-4-4-4-4-4-4-4-4----
A-7-7-7-7-7-7-7-7--2-2-2-2-2-2-2-2--4-4-4-4-4-4-4-4-4-4-4-4----
E-5-5-5-5-5-5-5-5--0-0-0-0-0-0-0-0--2-2-2-2-2-2-2-2-2-2-2-2----

chorus continued

E-------------------------
B-------------------------
G-7-7-7-7-7--6-4-6--------
D-7-7-7-7-7--6-4-6--------
A-5-5-5-5-5--4-2-4--------
E-------------------------


Rkchic[k] - 2007-04-27

so, daniboy...if you know it has mistakes...why not let us know what they are?


tHoMbRe - 2008-04-22

very close, see the correction posted on the chords by jesuschic.


Add a comment/correction

Complimentary Christian Ringtones
Dadamobile and CGR have teamed up to bring your favorite Christian artists right to your phone. Sign up today and get 10 complementary ringtones!
Tab Country
Did you know CGR has a sister site w/ country guitar tabs? Well we do! Its called Tab Country. It has a great archive with a lot of country tabs.
Rockin Tabs
Are you looking for a site that has rock guitar tabs? Then Rockintabs.com is the place for you. It is a budding site with many rock guitar tabs. Submit your tab today.
Tab Gallery
Tab Gallery has a compilation of christian, rock, and country tabs all in one place. Come visit us.